Guitar Hero

Surrender

Guitar Hero

tabs Expert expert

by  DEIVCAVALCANTI

save to print version add songbook text version e-mail correct tuner
chordsukulelecavacokeyboardtabbassdrumsharmonicaflute Guitar Pro
close

there isn't a video lesson for this song

chords

Surrender

	  		Intro 1: 
E|----------------------------------------------------------------| 
B|----------------------------------------------------------------| 
G|----------------------------------------------------------------| 
D|-6-666-666-666-668-----------------6-666-666-666-668------------| 
A|-6-666-666-666-668-----------------6-666-666-666-668------------| 
E|-4-444-444-444-446-----------------6-666-666-666-668------------| 

Verse 1: 
pm.............................................. 
E|------------------------------------------------------| 
B|------------------------------------------------------| 
G|-4-4-4-4-4-4-4---------------------------------4-44-44| 
D|-4-4-4-4-4-4-4-4-4-4-4-4-4-4-4-2-2-2-2-2-2-2-2-4-44-44| 
A|-2-2-2-2-2-2-2-4-4-4-4-4-4-4-4-2-2-2-2-2-2-2-2-2-22-22| 
E|---------------2-2-2-2-2-2-2-2-0-0-0-0-0-0-0-0--------| 

Riff 1: 
pm............................................ 
E|--------------------------------------------| 
B|--------------------------------------------| 
G|----------------------------4-4-4-4-4-4-4-4-| 
D|2-2-2-2-2-2-2-4-4-4-4-4-4-4-4-4-4-4-4-4-4-4-| 
A|2-2-2-2-2-2-2-4-4-4-4-4-4-4-2-2-2-2-2-2-2-2-| 
E|0-0-0-0-0-0-0-2-2-2-2-2-2-2-----------------| 

Riff 2: 
pm.............................. 
E|-----------------------------------------| 
B|-----------------------------------------| 
G|------------------------------4-44-44-44-| 
D|2-2-2-2-2-2-2-4-4-4-4-4-4-4-4-4-44-44-44-| 
A|2-2-2-2-2-2-2-4-4-4-4-4-4-4-4-2-22-22-22-| 
E|0-0-0-0-0-0-0-2-2-2-2-2-2-2-2------------| 

Chorus 1: 
                                  pm...................... 
E|--------------------------------------------------------------|---------------- 
B|--------------------------------------------------------------|---------------- 
G|4-4-4-4-4-4-4-4-----------------------------------------------|4-4-4-4-4-4-4-4- 
D|4-4-4-4-4-4-4-4-4-4-4-4-4-4-4-4-2-2-2-2-2-2-2-2-2-2-2-2-2-2-2-|4-4-4-4-4-4-4-4- 
A|2-2-2-2-2-2-2-2-4-4-4-4-4-4-4-4-2-2-2-2-2-2-2-2-2-2-2-2-2-2-2-|2-2-2-2-2-2-2-2- 
E|----------------2-2-2-2-2-2-2-2-0-0-0-0-0-0-0-0-0-0-0-0-0-0-0-|---------------- 
                pm......................      pm......      pm......         
----------------------------------------------------------------------------| 
----------------------------------------------------------------------------| 
----------------------------------------------------------------------------| 
4-4-4-4-4-4-4-4-2-2-2-2-2-2-2-2-2-2-2-2-2-2-2-2-2-2-2-2-2-2-2-2-2-2-2-2-2-2-| 
4-4-4-4-4-4-4-4-2-2-2-2-2-2-2-2-2-2-2-2-2-2-2-2-2-2-2-2-2-2-2-2-2-2-2-2-2-2-| 
2-2-2-2-2-2-2-2-0-0-0-0-0-0-0-0-0-0-0-0-0-0-0-0-0-0-0-0-0-0-0-0-0-0-0-0-0-0-| 

Intro 2: 
E|-----------------------------------------------------------------| 
B|-----------------------------------------------------------------| 
G|-----------------------------------------------------------------| 
D|-7-7-7-7-7-7-7-7-99----------------7-7-7-7-7-7-7-7-99------------| 
A|-7-7-7-7-7-7-7-7-99----------------7-7-7-7-7-7-7-7-99------------| 
E|-5-5-5-5-5-5-5-5-77----------------5-5-5-5-5-5-5-5-77------------| 

Verse 2: 
E|------------------------------------------------------------------| 
B|------------------------------------------------------------------| 
G|-----5-------5-----------------------------------------5-------5--| 
D|-5-5-5-5-5-5-5-5-----5-------5-------3-------3---5-5-5-5-5-5-5-5-5| 
A|-3-3-3-3-3-3-3-3-5-5-5-5-5-5-5-5-3-3-3-3-3-3-3-3-3-3-3-3-3-3-3-3-3| 
E|-----------------3-3-3-3-3-3-3-3-1-1-1-1-1-1-1-1------------------| 

Riff 3: 
E|--------------------------------------------| 
B|--------------------------------------------| 
G|--------------------------------------------| 
D|----------------------------5-5-5-5-5-5-5-5-| 
A|3-3-3-3-3-3-3-5-5-5-5-5-5-5-3-3-3-3-3-3-3-3-| 
E|1-1-1-1-1-1-1-3-3-3-3-3-3-3-----------------| 

Chorus 2: 
                                  pm......................                        
E|--------------------------------------------------------------|---------------- 
B|--------------------------------------------------------------|---------------- 
G|5-5-5-5-5-5-5-5-----------------------------------------------|5-5-5-5-5-5-5-5- 
D|5-5-5-5-5-5-5-5-5-5-5-5-5-5-5-5-3-3-3-3-3-3-3-3-3-3-3-3-3-3-3-|5-5-5-5-5-5-5-5- 
A|3-3-3-3-3-3-3-3-5-5-5-5-5-5-5-5-3-3-3-3-3-3-3-3-3-3-3-3-3-3-3-|3-3-3-3-3-3-3-3- 
E|----------------3-3-3-3-3-3-3-3-1-1-1-1-1-1-1-1-1-1-1-1-1-1-1-|---------------- 
                pm......................      pm......      pm......         
----------------------------------------------------------------------------| 
----------------------------------------------------------------------------| 
----------------------------------------------------------------------------| 
5-5-5-5-5-5-5-5-3-3-3-3-3-3-3-3-3-3-3-3-3-3-3-3-3-3-3-3-3-3-3-3-3-3-3-3-3-3-| 
5-5-5-5-5-5-5-5-3-3-3-3-3-3-3-3-3-3-3-3-3-3-3-3-3-3-3-3-3-3-3-3-3-3-3-3-3-3-| 
3-3-3-3-3-3-3-3-1-1-1-1-1-1-1-1-1-1-1-1-1-1-1-1-1-1-1-1-1-1-1-1-1-1-1-1-1-1-| 

Verse 3: 
E|---------------------------------| 
B|---------------------------------| 
G|-5-55-555----------5-55-555------| 
D|-5-55-555-3-33-333-5-55-555-5555-| 
A|-3-33-333-3-33-333-3-33-333-5555-| 
E|----------1-11-111----------3333-| 

Chorus 3: 
E|--------------------------------------------------------------| 
B|--------------------------------------------------------------| 
G|5-5-5-5-5-5-5-5-----------------------------------------------| 
D|5-5-5-5-5-5-5-5-5-5-5-5-5-5-5-5-3-3-3-3-3-3-3-3-3-3-3-3-3-3-3-| 
A|3-3-3-3-3-3-3-3-5-5-5-5-5-5-5-5-3-3-3-3-3-3-3-3-3-3-3-3-3-3-3-| 
E|----------------3-3-3-3-3-3-3-3-1-1-1-1-1-1-1-1-1-1-1-1-1-1-1-| 

Ending: This is from the live virgin. 
E|--------------------------------------------------------------------------------| 
B|--------------------------------------------------------------------------------| 
G|-5--5--5--5--3--3--3--3--5------------6--6--6--6--8--8--8--8-------------------5| 
D|-5--5--5--5--3--3--3--3--5------------6--6--6--6--8--8--8--8--55---------------5| 
A|-3--3--3--3--1--1--1--1--3------------4--4--4--4--6--6--6--6--55---------------3| 
E|--------------------------------------------------------------33----------------| 

Intro 1: 
Verse 1:   -  2x 
Riff 1: 
Riff 2: 
Chorus 1: 
Intro 2: 
Verse 1:   -  2x 
Riff 1:    -  2x 
Chorus 1: 
Intro 2: 
Verse 2:   -  2x 
Riff 3:    -  2x 
Chorus 2: 
Verse 3:   -  2x 
Chorus 3:  -  5 or 6x 
Ending: 
		  

auto scroll beats size up size down change color hide chords drawings
tab show chords e-chords YouTube Clip e-chords hide all tabs e-chords go to top tab

share