Guitar Hero

home > Guitar Hero

Hangar 18 Tab

Guitar Hero

Difficulty: BeginnerBeginner

by deivcavalcanti

tuner correct add songbook print version text version save to e-mail
chordsukulelecavacokeyboardtabbassdrumsharmonicsflute Guitar Pro
chords

Hangar 18

  		Afinação:(eBGDAE) 

e|-1-1-1-1-1-1-1-1-1-1-1-1-1-1-1-1-|-1-1-1-1-1-1-1-1-1-1-1-1-1-1-1-1-| 
B|-3-3-3-3-3-3-3-3-3-3-3-3-3-3-3-3-|-3-3-3-3-3-3-3-3-3-3-3-3-3-3-3-3-| 
G|-2-2-2-2-2-2-2-2-2-2-2-2-2-2-2-2-|-3-3-3-3-3-3-3-3-3-3-3-3-3-3-3-3-| 
D|---------------------------------|---------------------------------| 
A|---------------------------------|---------------------------------| 
E|---------------------------------|---------------------------------| 

|-1-1-1-1-1-1-1-1-1-1-1-1-1-1-1-1-|-1-1-1-1-1-1-1-1-1-1-1-1-1-1-1-1-| 
|-3-3-3-3-3-3-3-3-3-3-3-3-3-3-3-3-|-3-3-3-3-3-3-3-3-3-3-3-3-3-3-3-3-| 
|-4-4-4-4-4-4-4-4-4-4-4-4-4-4-4-4-|-4-4-4-4-4-4-4-4-4-4-4-4-4-4-4-4-| 
|---------------------------------|---------------------------------| 
|---------------------------------|---------------------------------| 
|---------------------------------|---------------------------------| 

|-5-5-5-5-5-5-5-5-5-5-5-5-5-5-5-5-|-5-5-5-5-5-5-5-5-5-5-5-5-5-5-5-5-| 
|-3-3-3-3-3-3-3-3-3-3-3-3-3-3-3-3-|-6-6-6-6-6-6-6-6-6-6-6-6-6-6-6-6-| 
|-5-5-5-5-5-5-5-5-5-5-5-5-5-5-5-5-|-7-7-7-7-7-7-7-7-7-7-7-7-7-7-7-7-| 
|---------------------------------|---------------------------------| 
|---------------------------------|---------------------------------| 
|---------------------------------|---------------------------------| 

|-6-6-6-6-6-6-6-6-6-6-6-6-6-6-6-6-|-7-7-7-7-7-7-7-7-7-7-7-7-7-7-7-7-| 
|-6-6-6-6-6-6-6-6-6-6-6-6-6-6-6-6-|-6-6-6-6-6-6-6-6-6-6-6-6-6-6-6-6-| 
|-7-7-7-7-7-7-7-7-7-7-7-7-7-7-7-7-|-7-7-7-7-7-7-7-7-7-7-7-7-7-7-7-7-| 
|---------------------------------|---------------------------------| 
|---------------------------------|---------------------------------| 
|---------------------------------|---------------------------------| 

|-8-8-8-8-8-8-8-8-8-8-8-8-8-8-8-8------ 
|-8-8-8-8-8-8-8-8-8-8-8-8-8-8-8-8------ 
|-9-9-9-9-9-9-9-9-9-9-9-9-9-9-9-9------ 
|-------------------------------------- 
|-------------------------------------- 
|-------------------------------------- 

---------1--5--------|------1--6--------|------1--7--------|------5--8--------| 
-------3------6------|----3------6------|----3------6------|----3------8------|  
--2--2----------7----|--3----------7----|--4----------7----|--5----------9----|  __2 vezes 
------------------0--|---------------0--|---------------0--|---------------0--|  / 
---------------------|------------------|------------------|------------------| / 
---------------------|------------------|------------------|------------------|/ 

|--------------------------| 
|-10--8--------------------| 
|-------10--9--7-----------| 
|-----------------10--9--7-| 
|--------------------------| 
|--------------------------| 

Verso 1: 
|----------------------------------------------------------------------| 
|----------------------------------------------------------------------| 
|---7------10~~~-------7-------10~~~-------7------10~~~------9------12-| 
|-----0--0-------0--0-----0--0-------0--0----0--0-------0--0---0--0----| 
|----------------------------------------------------------------------| 
|----------------------------------------------------------------------| 
                               (essa parte do verso é repetida 5 vezes) 

|----------------------------------------------------------| 
|----------------------------------------------------------| 
|------10/2-------10/7-------10/7------10--9----9-------0--| 
|-0--0-------0--0-------0--0------0--0---------------------| 
|----------------------------------------------------------| 
|----------------------------------------------------------| 

|----------------------------------------------------------------------------- 
|----------------------------------------------------------------------------- 
|----------------------------------------------------------------------------- 
|-----7----7---7-----8----8---8-----9----9---9-----8----8---8-----7----7----7- 
|---5----5---------7----7---------5----5---------7----7---------5----5-------- 
|-5----5----5----6----6----6----7----7----7----6----6----6----5----5-----5---- 

-------------------------------| 
-------------------------------| 
-------------------------------| 
-----8----8---8-----9----9---9-| 
---7----7---------5----5-------| 
-6----6----6----7----7----7----| 

|--------------------| 
|--------------------| 
|--------------------| 

--------------------------------------------------15---17---20---17--20---17----- 
----15---15---15---16---------------------------------------------------------20- 
-----------------------------14---17----14---17---------------------------------- 
--------------------------------------------------------------------------------- 
--------------------------------------------------------------------------------- 
--------------------------------------------------------------------------------- 

--------------------------------------------------------------------------------- 
--20---20---18------------------------------------------------------------------- 
-----------------19-------------------------------------------------------------- 
--------------------------------------------------------------------------------- 
--------------------------------------------------------------------------------- 
--------------------------------------------------------------------------------- 

--------------------------------------------------------------------------------- 
--------------------------------------------------------------------------------- 
--------------------------------------------------------------------------------- 
---------7-------7---7-------8----8---8-------9------9----9------8----8---8------ 
-------5------5-----------7----7-----------5------5-----------7----7------------- 
----5------5------5----6----6-----6-----7-----7-----7-----6-----6----6----------- 

--------------------------------------------------------------------------------- 
--------------------------------------------------------------------------------- 
--------------------------------------------------------------------------------- 
-----------7-------7----7--------8-----8----8-------9-----9----9----------------- 
--------5-------7------------7-----7------------5------5------------------------- 
----5-------5------5-----6-----6------6-----7------7------7---------------------- 

----17/13--------------------13--17/13--17/13--17/13-----13--18/13--------------- 
-----------15------------15---------------------------15-----------15------------ 
--------------14-----14-----------------------------------------------14--------- 
------------------15------------------------------------------------------15----- 
--------------------------------------------------------------------------------- 
--------------------------------------------------------------------------------- 

-----------13--17/13--15------13---------------17/13------16/13------16--16--20-- 
-------15-----------------17-------17--15--13---------15---------15-------------- 
----14--------------------------------------------------------------------------- 
--------------------------------------------------------------------------------- 
--------------------------------------------------------------------------------- 
--------------------------------------------------------------------------------- 

---20/17--22~-------------------------------------------------------------------- 
--------------------------------------------------------------------------------- 
--------------------------------------------------------------------------------- 
--------------------------------------------------------------------------------- 
--------------------------------------------------------------------------------- 
--------------------------------------------------------------------------------- 
	  

Search Paypal
auto scroll beats size up size down change color hide chords drawings
tab show chords e-chords YouTube Clip e-chords hide all tabs e-chords go to top tab