Guasones

home > Guasones

100 Años Tab

Guasones

Difficulty: nolevelnolevel

by bombaXXX

tuner correct add songbook print version text version save to e-mail
chordsukulelecavacokeyboardtabbassdrumsharmonicsflute Guitar Pro
chords

100 Años

(Facuando soto)

  		MODIFICACION A LA TRANSCRIPCION DE 
Pablito Gabriel ([email protected]) 
********************************************************************** 

(G-D-Em-C) x2 
          G-D                                        EM 
e|---------------------------------------|----|-----------------------| 
B|---------------------------------------|----|-8x-------------8x-----| 
G|---------------------------------------|----|-9x--9/11--11x------9x-| 
D|---------------------------5x-4x-0x----|-x2-|-9x--------------------| 
A|-2x-5x-5x-2x-5x---2x5x5x-2x---------0x-|----|-7x--------------------| 
E|---------------------------------------|----|-----------------------| 
         C 
e|-3x---3x3x---3x3x/5x----| 
B|-5x---5x5x---5x5x/7x---- 
G|-5x---5x5x---5x5x/7x----| 
D|-5x---5x5x---5x5x/7x----| 
A|-3x---3x3x---3x3x/5x----| 
M|-3x---3x3x---3x3x/5x----| 
-------------------------------------------------------------------- 
Verso: 

G 
Aprendi a caminar y reir 
             D 
solo en la calle 
Em 
la verdad la aprendi de mentir 
         C 
solo por vos 
G 
el dolor lo tuve que volcar 
             D 
dentro de un vaso 
Em 
y el fracaso lo pude escribir 
         C 
en una cancion 


------------------------------------------------------------------- 

(G-D-Em-C) 
          G-D                                        Em 

e|---------------------------------------|----|-----------------------| 
B|---------------------------------------|----|-8x-------------8x-----| 
G|---------------------------------------|----|-9x--9/11--11x------9x-| 
D|---------------------------5x-4x-0x----|-x2-|-9x--------------------| 
A|-2x-5x-5x-2x-5x---2x5x5x-2x---------0x-|----|-7x--------------------| 
E|---------------------------------------|----|-----------------------| 
         C 
e|-3x---3x3x---3x3x/5x----| 
B|-5x---5x5x---5x5x/7x---- 
G|-5x---5x5x---5x5x/7x----| 
D|-5x---5x5x---5x5x/7x----| 
A|-3x---3x3x---3x3x/5x----| 
M|-3x---3x3x---3x3x/5x----| 

----------------------------- 
Verso: 
G 
Aprendi a no callar, 
             D 
Defendi mis ideales 
Em 
Con la zurda me gusta patear, 
         C 
Por respeto al DIEZ 
G 
A robar aprendi aquella vez 
             D 
Que me robaron 
Em 
Y ahora puedo pedirte 
         C 
 perdon 100 años mas, 
---------------------------- 
Estribillo: 

G         (riff 1) 
100 años mas, 
C         (riff 1) 
100 años mas 
G         (riff 1) 
100 años mas 
C 
100 años mas 

       Riff 1 
e|--------------------| 
B|--------------------| 
G|--------------------| 
D|--------------------| 
A|--------2-2/3-2-0-2-| 
E|(3)-3-5-------------| 

------------------------------- 
G 
A cantar no aprendi 
             D 
pero igual sigo cantando 
Em 
a besar me enseño tu mujer 
        C 
y vos lo sabes 
G 
aprendi a tocar fondo y subir 
             D 
de un solo saque 
Em 
vos entraste a mi vida 
          C 
Sin dar una explicación 

---------------------------------- 
Estribillo: 

G         (riff 1) 
100 años mas, 
C         (riff 1) 
100 años mas 
G         (riff 1) 
100 años mas 
C 
100 años mas 

------------------------------------------- 

e|-------10-------------------|----------| 
B|-8h7-8----8-7-8/12--12b-10v-|-----13v/-| 
G|----------------------------|-9/12-----| 
D|----------------------------|----------| 
A|----------------------------|----------| 
E|----------------------------|----------| 

e|-------10--------------------------15------- 
B|--8h7-8---8-7-8/12b-12-10-/15-15/17--17-15-- 
G|--------------------------------------------| 
D|--------------------------------------------| 
A|--------------------------------------------| 
E|--------------------------------------------| 

e|-----10----10---------------------| 
B|--8h7---8h7--8-7-8/10-8-7/8-7-5v--| 
G|---------------------------------- 
D|---------------------------------- 
A|---------------------------------- 
E|---------------------------------- 

e|-----------| 
B|-----------| 
G|-----------| 
D|-9b-7-5-4v-| 
A|-----------| 
E|-----------| 

------------------------------ 
Estribillo: 

G         (riff 1) 
ohohohoho 
C         (riff 1) 
ohohohohoh 
G         (riff 1) 
hohohohoh 
C 
hohohohoh 

G         (riff 1) 
100 años mas, 
C         (riff 1) 
100 años mas 
G         (riff 1) 
100 años mas 
C 
100 años mas
	  

Full key step upFull key step up
Half key step upHalf key step up
Half key step downHalf key step down
Full key step downFull key step down
Search Paypal
auto scroll beats size up size down change color hide chords drawings
tab show chords e-chords YouTube Clip e-chords hide all tabs e-chords go to top tab