Guards

I Know Its You

Guards

tabs

by  MARCNAGEL

save to print version add songbook text version e-mail correct tuner
chordsukulelecavacokeyboardtabbassdrumsharmonicaflute Guitar Pro
close

there isn't a video lesson for this song

chords

I Know Its You

	  		
Intro 

e|----------|-7-4---4-----4-7-------7-4---4-----4-----------------------------| 
B|----------|-----7---4-7---------------7---4-7---7---4-----------------------| 
G|----------|-----------------8p6\4-----------------6---4---------------------| 
D|----------|-----------------------------------------------------------------| 
A|----------|-----------------------------------------------------------------| 
E|-7-7------|-----------------------------------------------------------------| 

Chorus 

(2:05 and 3:51) 
e|---------------------------------------------------------------------------| 
B|---------------------------------------------------------------------------| 
G|---------------------------------------------------------------------------| 
D|-11-9-13-14-13-13-13-------------------------------------------------------| 
A|-------------------------------14-14-14-14-14-14-14-14-14-14-14-14\9-------| 
E|---------------------4-2-4-11b---------------------------------------------| 


************************************ 
| p  Pull-off 
| b  Bend 
| \  Slide down 
************************************ 
		  

auto scroll beats size up size down change color hide chords drawings
tab show chords e-chords YouTube Clip e-chords hide all tabs e-chords go to top tab

share