Grouper

Clearing

Grouper

tabs

by  TARIKIKE

save to print version add songbook text version e-mail correct tuner
chordsukulelecavacokeyboardtabbassdrumsharmonicaflute Guitar Pro
close

there isn't a video lesson for this song

chords

Clearing

	  		Listen for timing. Everything's sort of approximate, especially the bass notes. Enjoy! 


Verse (x2) 
     
                x4 
    G                        Bm 
e----------------|------------------------------------------| 
B-----00---0-----|----------00------------------------------| 
G---2----2---2---|-----0-2-----2------------------------2---| 
D----------------|---4------------4-------4-----4----4------| 
A----------------|-----------2---------2-----2-----2--------| 
E---3------3-----|---3--------------------------------------| 

Chorus (x2)  
    G                   C 
e---------------------0-----------------| 
B---000-3-0-----00-33---------------0---| 
G------------22------------0-----0------| 
D-----------------------2-----2---------| 
A-----------------------3-----3---------| 
E---3---3---3---------------------------| 

Bridge  (x2) 

    D                 C 
e--------------------------------------| 
B-----00-3--33-1-0---------------------| 
G---2--------------22-0----0-----0--0--| 
D---0--------------------2----2--------| 
A---------------------3--3----3--------| 
E--------------------------------------| 
		  

Full key step upFull key step up
Half key step upHalf key step up
Half key step downHalf key step down
Full key step downFull key step down
hide glossary

See also:

tabs Deep Purple - Smoke On The Water (Intro + solo 01) tabs Deep Purple - Perfect Strangers tabs Deep Purple - Smoke on the water (ver. 3) tabs Ira! - Eu Quero Sempre Mais (ver. 2) tabs Deep Purple - Fireball (ver. 2) tabs Deep Purple - Squished Bananas Dave&cammey
e-chords

Other versions:

tabs Grouper - Clearing
auto scroll beats size up size down change color hide chords drawings
tab show chords e-chords YouTube Clip e-chords hide all tabs e-chords go to top tab

share with facebook