Gregory Isaacs

Stranger in town

Gregory Isaacs

tabs Beginner beginner

save to print version add songbook text version e-mail correct tuner
chordsukulelecavacokeyboardtabbassdrumsharmonicaflute Guitar Pro
close

there isn't a video lesson for this song

chords

Stranger in town

	  		

|     C       C       G       G   |     C       C       G       G   |
|---------------------------------|-------------2-------------------|
|-----2---5-----------------------|-----2---5-5-----5---------------|
|(3)------------------------------|(3)------------------------------|
|-----------------3-5-3-----------|---------------------------------|

|     C       C       G       G   |     C       C       G       G   |
|---------------------------------|---------------------------------|
|-----5---2-----------------------|-----2---5-----------------------|
|(3)------------------------------|(3)------------------------------|
|-----------------3-5-3-----------|-----------------3-5-3-----------|
		  

Full key step upFull key step up
Half key step upHalf key step up
Half key step downHalf key step down
Full key step downFull key step down
hide glossary

See also:

tabs K2R Riddim - One by One tabs Temptations - My girl tabs Toots and the Maytals - Funky Kingston tabs Kana - Visite guidée tabs Tryo - Pour un flirt avec la crise tabs Culture - Too long in slavery
e-chords

Other versions:

tabs Gregory Isaacs - Stranger in town
auto scroll beats size up size down change color hide chords drawings
tab show chords e-chords YouTube Clip e-chords hide all tabs e-chords go to top tab

share