Green Day

You Lied

Green Day

tabs

by  DONKEY FLY

save to print version add songbook text version e-mail correct tuner
chordsukulelecavacokeyboardtabbassdrumsharmonicaflute Guitar Pro
close

there isn't a video lesson for this song

chords

You Lied

Year: 2002 - Album: Shenanigans

Key:  G#/A More
You Lied Key D#/ED#/E
You Lied Key E/FE/F
You Lied Key F/F#F/F#
You Lied Key F#/GF#/G(one step down)
You Lied Key G/G#G/G#(half step down)
You Lied Key G#/AG#/A(original key)
You Lied Key A/A#A/A#(half step up)
You Lied Key A#/BA#/B(one step up)
You Lied Key B/CB/C
You Lied Key C/C#C/C#
You Lied Key C#/DC#/D
You Lied Key D/D#D/D#
	  		Tuned half step down: Low to high (Eb Ab, Db, Gb, Bb, Eb) 
 
Intro/Riff 1: 
-----------------| 
-----------------| 
-----------------| 
-6/7-7-7-7-7-7-7-| 
-6/7-7-7-7-7-7-7-| 
-4/5-5-5-5-5-5-5-| 
 
Verse/Riff 1: 
-----------------|-----------------|-----------|-----------| 
-----------------|-----------------|-----------|-----------| 
-----------------|-----------------|-----------|-----------| 
-6/7-7-7-7-7-7-7-|-6/7-7-7-7-7-7-7-|-3/4-4-4-4-|-3/4-4-4-4-| 
-6/7-7-7-7-7-7-7-|-6/7-7-7-7-7-7-7-|-3/4-4-4-4-|-3/4-4-4-4-| 
-4/5-5-5-5-5-5-5-|-4/5-5-5-5-5-5-5-|-1/2-2-2-2-|-1/2-2-2-2-| 
 
Verse/Riff 2: 
-----------|-----------|-----------|-----------|-----------|-----------| 
-----------|-----------|-----------|-----------|-----------|-----------| 
-----------|-----------|-----------|-----------|-----------|-----------| 
-6/7-7-7-7-|-6/7-7-7-7-|-6/7-7-7-7-|-6/7-7-7-7-|-3/4-4-4-4-|-3/4-4-4-4-| 
-6/7-7-7-7-|-6/7-7-7-7-|-6/7-7-7-7-|-6/7-7-7-7-|-3/4-4-4-4-|-3/4-4-4-4-| 
-4/5-5-5-5-|-4/5-5-5-5-|-4/5-5-5-5-|-4/5-5-5-5-|-1/2-2-2-2-|-1/2-2-2-2-| 
 
Chorus: 
---------|---------|---------|---------|---------|---------|---------|---------| 
---------|---------|---------|---------|---------|---------|---------|---------| 
-9-9-9-9-|-7-7-7-7-|-9-9-9-9-|-7-7-7-7-|-9-9-9-9-|-7-7-7-7-|-9-9-9-9-|-7-7-7-7-| 
-9-9-9-9-|-7-7-7-7-|-9-9-9-9-|-7-7-7-7-|-9-9-9-9-|-7-7-7-7-|-9-9-9-9-|-7-7-7-7-| 
-7-7-7-7-|-5-5-5-5-|-7-7-7-7-|-5-5-5-5-|-7-7-7-7-|-5-5-5-5-|-7-7-7-7-|-5-5-5-5-| 
---------|---------|---------|---------|---------|---------|---------|---------| 
 
Intro/Riff 2: 
---------|-----------| 
---------|-----------| 
---------|-----------| 
-7-7-7-7-|-6/7-7-7-7-| 
-7-7-7-7-|-6/7-7-7-7-| 
-5-5-5-5-|-4/5-5-5-5-| 
 
Solo: 
---------|----------|---------|---------|----------|---------| 
---------|-------10-|---------|---------|-------10-|---------| 
---6-9-6-|---6-9----|---3-6-3-|---6-9-6-|---6-9----|---3-6-3-| 
-7-------|-7--------|-4-------|-7-------|-7--------|-4-------| 
---------|----------|---------|---------|----------|---------| 
---------|----------|---------|---------|----------|---------| 
 
 
 
 
         Come in with 
       "Rhyfig1" here 
Outro:               |-----------------------------------------------| 
---------|-----------|-----------|-----------|-----------|-----------|---| 
---------|-----------|-----------|-----------|-----------|-----------|---| Hold 
---------|-----------|-----------|-----------|-----------|-----------|-6-| Chord 
-7-7-7-7-|-6/7-7-7-7-|-6/7-7-7-7-|-6/7-7-7-7-|-6/7-7-7-7-|-6/7-7-7-7-|-5-| 
-7-7-7-7-|-6/7-7-7-7-|-6/7-7-7-7-|-6/7-7-7-7-|-6/7-7-7-7-|-6/7-7-7-7-|-7-| 
-5-5-5-5-|-4/5-5-5-5-|-4/5-5-5-5-|-4/5-5-5-5-|-4/5-5-5-5-|-4/5-5-5-5-|-5-| 
 
Rhyfig1: 
---------|---------|---------|-------| 
-7-------|-7-------|---7-----|-7-----| 
---9-6---|---9--6--|-9---9-6-|---9-6-| 
---------|---------|---------|-------| 
---------|---------|---------|-------| 
---------|---------|---------|-------| 
 
Order Of Music: 
 
Intro: Play "Intro/Riff 1" Once 
Verse: Play "Verse/Riff 1" Once then play "Verse/Riff 2" Once 
Chorus: Play "Chorus" Once 
Intro to 2nd Verse: Play "Intro/Riff 2" Once 
Verse: Play "Verse/Riff 2" Twice 
Chorus: Play "Chorus" Once 
Interlude: Play "Intro/Riff 2" Once 
Solo: Play "Solo" once with "Verse/Riff 2" played twice behind it 
Chorus: Play "Chorus" Once 
Outro: Play "Outro" Once 
 

		  

Full key step upFull key step up
Half key step upHalf key step up
Half key step downHalf key step down
Full key step downFull key step down
auto scroll beats size up size down change color hide chords drawings
tab show chords e-chords YouTube Clip e-chords hide all tabs e-chords go to top tab

share