Green Day

We Are The Waiting Tab

Green Day

Difficulty: nolevelnolevel

by XxMozxX

tuner correct add songbook print version text version save to e-mail
chordsukulelecavacokeyboardtabbassdrumsharmonicsflute Guitar Pro
close

there isn't a video lesson for this song

chords

We Are The Waiting

  		|------------------------------------2---------------2--------- 
|------2---------------2-------------3-----3---------3-----3----- 
|----2-----2---------2-----2-------2-----------2---2-----------0- 
|--2-----------2---2-----------2-0---------------0--------------- 
|0---------------0----------------------------------------------- 
|---------------------------------------------------------------- 

|---------------------------------------------------------------- 
|------10--------------9---------------7---------------7--------- 
|----11----11--------9-----9---------7-----7---------7-----7----- 
|--11----------11--9---------------7-----------7---7-----------7- 
|9---------------7-------------7S5---------------7--------------- 
|---------------------------------------------------------------- 
	  

Search Paypal
auto scroll beats size up size down change color hide chords drawings
tab show chords e-chords YouTube Clip e-chords hide all tabs e-chords go to top tab

share with facebook