Green Day

home > Green Day

The Simpsons Theme Tab

Green Day

Difficulty: ExpertExpert

by europeu

tuner correct add songbook print version text version save to e-mail
chordsukulelecavacokeyboardtabbassdrumsharmonicsflute Guitar Pro
chords

The Simpsons Theme

  		 C5                            x2 B5                          x2 
E |-----------------------------| |----------------------------| | 
B |---5-7-10-8-5--------------o-| |---4-6-9-7-4--------------o-| | 
G |-5------------5--------------| |-4-----------4--------------| | 
D |----------------7-4-4-4-5~---| |----------------6-3-3-3-4~--| | 
A |---------------------------o-| |--------------------------o-| | 
E |-----------------------------| |----------------------------| | 

    E5                            x2 C5                          x2 
E |------------------------------| |----------------------------| | 
B |---9-11-14-12-9-------------o-| |---5-7-10-8-5-------------o-| | 
G |-9--------------9-------------| |-5------------5-------------| | 
D |------------------11-8-8-8-9~-| |----------------7-4-4-4-5~--| | 
A |----------------------------o-| |--------------------------o-| | 
E |------------------------------| |----------------------------| | 

Guitar 1(0:53)  x15 
E |-------------| 
B |-11-11-xx--o-| 
G |-------------| 
D |-------------| 
A |-----------o-| 
E |-------------| 

Guitar 2 
  (0:57)         (1:00) 
E |-------------|--------------------11---------------| 
B |-------------|---8h1111h1411h14------------------| 
G |-8~~~--------|-8-----------------------------------| 
D |-------------|-------------------------------------| 
A |-------------|-------------------------------------| 
E |-------------|-------------------------------------| 

    E5                            x2 
E |------------------------------| 
B |---9-11-14-12-9-------------o-| 
G |-9--------------9-------------| 
D |------------------11-8-8-8-9~-| 
A |----------------------------o-| 
E |------------------------------| 

   Tun tun tun tun-tun tun... 
E |-------------------------------------------------------------------| 
B |---5-7-10-8-5------------------------------------------------------| 
G |-5------------5---------------------5-5-5-5------------------------| 
D |----------------7-4-4-4-5-4-4-4-5-5--------------------------------| 
A |-------------------------------------------------------------------| 
E |-------------------------------------------------------------------| 

	  

Full key step upFull key step up
Half key step upHalf key step up
Half key step downHalf key step down
Full key step downFull key step down
Search Paypal
auto scroll beats size up size down change color hide chords drawings
tab show chords e-chords YouTube Clip e-chords hide all tabs e-chords go to top tab