Green Day

home > Green Day

Burnout Tab

Green Day

Difficulty: nolevelnolevel

by meta11eir0

tuner correct add songbook print version text version save to e-mail
chordsukulelecavacokeyboardtabbassdrummharmonicsflute Guitar Pro
chords

Burnout

Year: 1994 - Album: Dookie

  		Green Day 
Burnout 
 
Nota: É recomendavel baixar um tom da guitarra para tocar essa música, mas eu nao acho muuuito 
necessario... 
 
Verso - 2 vezes 
E|----------------------------------------------------------------------------------------| 
B|----------------------------------------------------------------------------------------| 
G|---------5-5-5-5-5-----------5-5-----------------------------7-7-7-7-7-7-7-7-7-7-7------| 
D|5-5-5-5--5-5-5-5-5--5-5-5-5--5-5--3-3-3--5-5-5-5--3-3-3-3-3--7-7-7-7-7-7-7-7-7-7-7------| 
A|5-5-5-5--3-3-3-3-3--5-5-5-5--3-3--3-3-3--5-5-5-5--3-3-3-3-3--5-5-5-5-5-5-5-5-5-5-5------| 
E|3-3-3-3-------------3-3-3-3-------1-1-1--3-3-3-3--1-1-1-1-1-----------------------------| 
 
 
Refrao 
E|----------------------------------------------------------------------------------------| 
B|----------------------------------------------------------------------------------------| 
G|5-5-5-5-------------5-5----------------------5-5-5-5--3-3-3-3-3--7-7-7-7-7-7-7-7-7-7-7--| 
D|5-5-5-5--5-5-5-5-5--5-5--3-3--5-5-5-5-5-5-5--5-5-5-5--3-3-3-3-3--7-7-7-7-7-7-7-7-7-7-7--| 
A|3-3-3-3--5-5-5-5-5--3-3--3-3--5-5-5-5-5-5-5--3-3-3-3--3-3-3-3-3--5-5-5-5-5-5-5-5-5-5-5--| 
E|---------3-3-3-3-3-------1-1--3-3-3-3-3-3-3-----------1-1-1-1-1-------------------------| 
 
 
Ponte: (faça isso durante o solo de bateria) 
E|----------------------------------------------------------------------------------------| 
B|----------------------------------------------------------------------------------------| 
G|----------------------------------------------------------------------------------------| 
D|5-5-5-3-5-------------------------------------------------------------------------------| 
A|5-5-5-3-5-------------------------------------------------------------------------------| 
E|3-3-3-1-3-------------------------------------------------------------------------------| 
 
 
Aí é só vc repetir as figuras acima nessa ordem: 
Verso (x2) 
Refrao 
Verso 
Refrao (x2) 
Ponte (x4) 
Refrao (x2) 
 
---> [email protected] 
	  

Search Paypal
auto scroll beats size up size down change color hide chords drawings
tab show chords e-chords YouTube Clip e-chords hide all tabs e-chords go to top tab