Green Day

At The Library

Green Day

tabs Expert expert

by  META11EIR0

save to print version add songbook text version e-mail correct tuner
chordsukulelecavacokeyboardtabbassdrumsharmonicaflute Guitar Pro
close

there isn't a video lesson for this song

chords

At The Library

Year: 1991 - Album: 1,039/Smoothed Out Slappy Hours

	  		pm= abafado 
/= slide 
p= pull off 
h= hammer on 
 
 
Em resumo, esses sao os acordes usados nessa msica: 
 
     G5 =|---| B5=|---| C5=|---| D5=|---| E=|-0-| D=|-2-| 
         |---|    |---|    |---|    |-3-|   |-0-|   |-3-| 
         |---|    |-4-|    |-5-|    |-2-|   |-1-|   |-2-| 
         |-5-|    |-4-|    |-5-|    |-0-|   |-2-|   |-0-| 
         |-5-|    |-2-|    |-3-|    |---|   |-2-|   |---| 
         |-3-|    |---|    |---|    |---|   |-0-|   |---| 
 
Intro: PM 
|-------------------------------------------------| 
|-------------------------------------------------| 
|-------------------------------------------------| 
|--4-4-4---5-5-5---4-4-4---5-5-5---4-4-4---5-5-5--|                                 
|--5-5-5-0-3-3-3-0-5-5-5-0-3-3-3-0-5-5-5-0-3-3-3--| 
|-------------------------------------------------| 
 
|--------------------------------------------------| 
|--------------------------------------------------| 
|-4-4-4-4-4-xx-------------------------------------| 
|-4-4-4-4-4-xx------4-4-4---5-5-5---4-4-4---5-5-5--| 
|-2-2-2-2-2-xx------5-5-5-0-3-3-3-0-5-5-5-0-3-3-3--| 
|--------------14/---------------------------------| 
 
|-------------------------------| 
|-------------------------------| 
|-------------------4-4-4-4-4---| 
|---4-4-4---5-5-5---4-4-4-4-4-0-| 
|-0-5-5-5-0-3-3-3-0-2-2-2-2-2-0-| 
|-------------------------------| 
 
 
{Ritmo} 
|----------------------------------------------| 
|----------------------------------------------| 
|-------0-------0-------0-------0--------------| 
|-------------4-------5-------7----------------| (x2) 
|-----5---2-2-----3-3-----5-5------------------|  
|-3-3------------------------------------------| 
                                                               
Ponte 
|-----7---5----7------------5------------------| 
|-7-----7---7-------------7---7-7--------------| 
|---7------------7--5---5----------------------| 
|---------------------5------------------------| 
|----------------------------------------------| 
|----------------------------------------------| 
Entao, tudo isso, "cifradamente" falando, ficaria assim: 
 
Verso 1 
(com a figura do ritmo) 
 
G5    B5     C5      D5   G5        B5      C5       D5  
Hey there,looking at me,    ah,tell me what___ do you see? 
 
G5         B5          C5         D5      G5    B5    C5    D5 
  But you quickly turn__  your head_ a_____way. 
 
G5         B5            C5        D5 
  I try to find the words_ I could use.  
 
G5               B5            C5       D5       
  Don't have the courage to come_ up to you._ 
 
G5     B5           C5      D5           G5       B5    C5    D5 
  My chance is look___ing a___ bit_________ grey. 
 
 
Refrao: 
E           D                     
  Starting across the room.___ 
 
E         D 
  Are you leaving soon?___  
 
E        D               C5        D5     
  I just need_ a little time. 
 
Verso 2 
(Com a figura do ritmo) 
(Como  tudo exatamente como no primeiro verso, ai estao s as letras...) 
 
What is that drives me mad? 
 
Girls like you that I never had. 
 
What is it about you that I adore? 
 
What makes me go so insane? 
 
What makes me feel so much pain? 
 
What is it about you taht I adore? 
 
Refrao: 
E           D 
  Starting across the room.___  
 
E         D 
  Are you leaving soon?___ 
 
E        D               C5                          
  I just need_ a liitle time. 
                         (time.__________What time?_  Wow!) 
 
A vem o solo de guitarra. 
  G 
|-------------3-(3)------------------------| 
|-3--3--------3-(3)-3--3--3----3--3--3-----| 
|-0--0---0-0--0-(0)-0--0--0----0--0--0-----| 
|-0--0---0-0--------0--0--0----0--0--0-----| 
|-x--x---x-x--------x--x--x----x--x--x-----| 
|-3--3---3-3--------3--3--3----3--3--3-----| 
 
------------3-(3)---------7-7-7-7-8-8-10-10-10-10-(10)--| 
-3--3---3-3-3-(3)-3---3---8-8-8-8-8-8--8--8--8--8-(-8)--| 
-0--0---0-0-0-(0)-0---0---7-7-7-7-7-7--7--7--7--7-(-7)--| 
-0--0---0-0-0-(0)-0---0---0-0-0-0-0-0--0--0--0--0-(-0)--| 
-x--x---x-x-x-(-)-x---x---------------------------------| 
-3--3---3-3-3-(3)-3---3---------------------------------| 
 
 
-8-8-7-7------------8-8-7-7-8-(8)-10--10-8-7--3--3--3-3-3-3-| 
-8-8-8-8------------8-8-8-8-8-(8)--8---8-8-8--3--3--3-3-3-3-| 
-7-7-7-7-7/14--0-0--7-7-7-7-7-(7)--7---7-7-7--0--0--0-0-0-0-| 
-0-0-0-0-------0-0--0-0-0-0-0-(0)--0---0-0-0--0--0--0-0-0-0-| 
----------------------------------------------x--x--x-x-x-x-| 
----------------------------------------------3--3--3-3-3-3-| 
 
-(3)-3--3--3----3--3--3--3--3---3-(3)--3---3--3-----------------| 
-(3)-3--3--3----3--3--3--3--3---3-(3)--3---3--3-3---(3)--(3)-(3)| 
-(0)-0--0--0----0--0--0--0--0---0-(0)--0---0--0-0---(0)--(0)-(0)| 
-(0)-0--0--0----0--0--0--0--0---0-(0)--0---0--0-0---(0)--(0)-(0)| 
-(-)-x--x--x----x--x--x--x--x---x-(-)--x---x--x-x---(-)--(-)-(-)| 
-(3)-3--3--3----3--3--3--3--3---3-(3)--3---3--3-3---(3)--(3)-(3)| 
 
 
Ponte: PM 
 G5 
 Why___   did you have_ to_ leave_ so soon?________ 
 
|-----------------------------------------------------------| 
|-----------------------------------------------------------| 
|-----------------------------------------------------------| 
|5-5-5-5-5-5-5-5-5-5-5-5-5-5-5-5-5-5-5-5-5-5-5-5-5-5-5-5-5-5| 
|5-5-5-5-5-5-5-5-5-5-5-5-5-5-5-5-5-5-5-5-5-5-5-5-5-5-5-5-5-5| 
|3-3-3-3-3-3-3-3-3-3-3-3-3-3-3-3-3-3-3-3-3-3-3-3-3-3-3-3-3-3| 
 
G5                                    D 
 Why___   did you have_ to walk_ a_____way?____________ 
 
------------------------------------2--2-2-2-2-2-2-0-(0)-2-2--2-2--|  
------------------------------------3--3-3-3-3-3-3-3-(3)-3-3--3-3--|  
------------------------------------2--2-2-2-2-2-2-2-(2)-2-2--2-2-0|  
5-5-5-5-5-5-5-5-5-5-5-5-5-5-5-5-5-5-0--0-0-0-0-0-0-0-(0)-0-0--0-0-0|                
5-5-5-5-5-5-5-5-5-5-5-5-5-5-5-5-5-5--------------------------------|  
3-3-3-3-3-3-3-3-3-3-3-3-3-3-3-3-3-3--------------------------------|  
 
Verso3 
  G5   B5        C5          D5       
  Oh, well it hap___pened a_gain      
 
G5             B5       C5          D5 
  She walked a_way with__ her boyfriend. 
 
G5    B5          C5        D5      G5     B5     C5    D5 
     May_be we'll meet_ a__gain_ some___ day. 
 
G5    B5          C5        D5      G5     B5     C5    D5 
     May_be we'll meet_ a__gain_ some___ day,   some_ day._____ Yeah. 
 
|-------------------------------------------------|  
|-------------------------------------------------|  
|-------------------------------------------------|  
|-4-4-4---5-5-5---4-4-4---5-5-5---4-4-4---5-5-5---|  
|-5-5-5-0-3-3-3-0-5-5-5-0-3-3-3-0-5-5-5-0-3-3-3-0-|  
|-------------------------------------------------| 
 
|-----7---5-----------|  
|---7---7-5-0-0-------|  
|-5---------0-0-------|                                                               
|-----------------5---|     
|-----------------5---|  
|---------------0-3---| 
 
Entao  isso a!!! 
Quero comprar o novo cd do green day... BA!!! 
		  

Full key step upFull key step up
Half key step upHalf key step up
Half key step downHalf key step down
Full key step downFull key step down
auto scroll beats size up size down change color hide chords drawings
tab show chords e-chords YouTube Clip e-chords hide all tabs e-chords go to top tab

share