Grateful Dead

home > Grateful Dead

China Doll Tab

Grateful Dead

Difficulty: nolevelnolevel

by Rowane

tuner correct add songbook print version text version save to e-mail
chordsukulelecavacokeyboardtabbassdrumsharmonicsflute Guitar Pro
chords

China Doll

  		China Doll 
 
 
E--0h1p0---------------------------------------------------- 
B---------3------------------------------------------------- 
G------------2-----2---------------------------------------- 
D---------------3-----2h3p2-----0--------------------------- 
A----------------------------3------------------------------ 
E----------------------------------------------------------- 
 
E---1-----------1-----1-------1----------------------------- 
B------3-----3-----3------3---3----------------------------- 
G---------2-------------------2----------------------------- 
D-----------------------------0----------------------------- 
A----------------------------------------------------------- 
E----------------------------------------------------------- 
 
 
Dm            Fmaj7 
A pistol shot, at five o'clock, 
 
           B7 
  |---|---|---|---|---|     E-------------1-----1---- 
  |   |   |   X   |   X     B----------3--------3---- 
  |---|---|---|---|---|     G-------1-----------1---- 
  |   X   |   |   |   |     D------------------------ 
  |---|---|---|---|---|     A---2---------------2---- 
  |   |   |   |   X   |     E------------------------ 
  |---|---|---|---|---| 
  |   |   |   |   |   | 
  |---|---|---|---|---| 
 
 
B7                 Bb 
The bells of heaven ring, 
A7               Dm 
Tell me what you done it for, 
     F                C         A7 
No I won't tell you a thing. 
 
       C                          A7 
E------0---------------------------------------------------- 
B------1--------------------------2------------------------- 
G------0--------------------------0------------------------- 
D------2--------------------------2------------------------- 
A------3---------------2h3p2------0------------------------- 
E-----------------------------3----------------------------- 
 
 
Yesterday I begged you 
Before I hit the ground, 
All I leave behind me 
Is only what I found. 
 
If you can abide it, 
Let the hurdy-gurdy play, 
Stranger ones have come by here 
Before they flew away. 
 
I will not condemn you 
Nor yet would I deny, 
I would ask the same of you, 
                                 Am 
But failing, will not die. 
 
A7         D 
 
                       A 
Take up your china doll, (take up your china doll, Whoooo) 
 
E-----3---2---0-------------------2------------------------- 
B-----------------3----0----------3------------------------- 
G-------------------------2---0---2-----0------------------- 
D---------------------------------0----------4----0--------- 
A----------------------------------------------------------- 
E-----3----------------------------------------------------- 
 
          G                                         D 
It's only fractured; just a little nervous from the fall. 
 
G      D 
 
G                 D 
La-la-la-la-la-la-la. 
 

	  

Full key step upFull key step up
Half key step upHalf key step up
Half key step downHalf key step down
Full key step downFull key step down
Search Paypal
auto scroll beats size up size down change color hide chords drawings
tab show chords e-chords YouTube Clip e-chords hide all tabs e-chords go to top tab