Grant Lee Buffalo

Fuzzy

Grant Lee Buffalo

tabs Beginner beginner

by  TARIKIKE

save to print version add songbook text version e-mail correct tuner
chordsukulelecavacokeyboardtabbassdrumsharmonicaflute Guitar Pro
close

there isn't a video lesson for this song

chords

Fuzzy

Key:  D More
Fuzzy Key AA
Fuzzy Key A#A#
Fuzzy Key BB
Fuzzy Key CC(one step down)
Fuzzy Key C#C#(half step down)
Fuzzy Key DD(original key)
Fuzzy Key D#D#(half step up)
Fuzzy Key EE(one step up)
Fuzzy Key FF
Fuzzy Key F#F#
Fuzzy Key GG
Fuzzy Key G#G#
	  		

Guitar -1/2 Step 

Intro /  Verses / Solos : 

     D5   Bm(no5)/D 
D#|----------------------------|----------------------------| 
A#|--3--3--3--3--3--3--3--3----|--3--3--3--3--3--3--3--3----| 
F#|--2--2--4--2--2--2--4--2----|--2--2--4--2--2--2--4--2----| 
C#|--0--0--0--0--0--0--0--0----|--0--0--0--0--0--0--0--0----| 
G#|----------------------------|----------------------------| 
D#|----------------------------|----------------------------| 

 F#m 
--------2-----------2-------|--------2-----------2-------| 
--------2-----------2-------|--------2-----------2-------| 
--------2-----------2-------|--------2-----------2-------| 
--4--4--4--4--4--4--4--4----|--4--4--4--4--4--4--4--4----| 
--4--4--4--4--4--4--4--4----|--4--4--4--4--4--4--4--4----| 
--2--2-----2--2--2-----2----|--2--2-----2--2--2-----2----| 


Chorus :  
     E                                                        
D#|--0--0--0--0--0--0--0--0----|--0--0--0--0--0--0--0--0----| 
A#|--0--0--0--0--0--0--0--0----|--0--0--0--0--0--0--0--0----| 
F#|--1--1--1--1--1--1--1--1----|--1--1--1--1--1--1--1--1----| 
C#|--2--2--2--2--2--2--2--2----|--2--2--2--2--2--2--2--2----| 
G#|--2--2--2--2--2--2--2--2----|--2--2--2--2--2--2--2--2----| 
D#|--0--0--0--0--0--0--0--0----|--0--0--0--0--0--0--0--0----| 

  F#m                                                       
--2--2--2--2--2--2--2--2----|--2--2--2--2--2--2--2--2----| 
--2--2--2--2--2--2--2--2----|--2--2--2--2--2--2--2--2----| 
--2--2--2--2--2--2--2--2----|--2--2--2--2--2--2--2--2----| 
--4--4--4--4--4--4--4--4----|--4--4--4--4--4--4--4--4----| 
--4--4--4--4--4--4--4--4----|--4--4--4--4--4--4--4--4----| 
--2--2--2--2--2--2--2--2----|--2--2--2--2--2--2--2--2----| 

  ^ 
--0-----0L-0L-0L----0-------|--0--------0--0--0--0--0----| 
--0--------0L-0L----0-------|--------0-----0--0--0--0----| 
--1-----------1-----1--1----|--------------1--1--1--1----| 
--2-----------------2--2----|-----2--------2--2--2--2----| 
----------------------------|--------------2--2--2--2----| 
----------------------------|--------------0--0--0--0----| 

Guitar 2 (standard tuning) : 
 Verses : 
                       w                w           w 
E |----------------------------|----------------------------|----------|-------| 
B |--------------------11-9L---|--9-----11-9--------11-9----|--13-13---|--13---| 
G |----------------------------|----------------------------|----------|-------| 
D |----------------------------|----------------------------|----------|-------| 
A |----------------------------|----------------------------|----------|-------| 
E |----------------------------|----------------------------|----------|-------| 

Guitar Slide (standard tuning) : 

E |----------------------------------------------------------------------------- 
B |--4s-6----------------------------------------------------------------------- 
G |--3s-5----------------------------------------------------------------------- 
D |--1s-3----------------------------------------------------------------------- 
A |----------------------------------------------------------------------------- 
E |----------------------------------------------------------------------------- 

                                      ^  ^          w 
-----------------------------|----------------|----------|-------| 
4s-6L------------------------|--6-----6-------|----------|-------| 
3s-5L------------------------|--5-----5--8----|-----12---|--5----| 
1s-3L------------------------|--3-----3--8----|----------|-------| 
-----------------------------|-----------6----|----------|-------| 
-----------------------------|-----------6----|----------|-------| 


Guitar Solo  (standard tuning) : 

E |--4-----------------------4--6-----------4L----------4-----------1----------- 
B |----------------------------------------------------------------------------- 
G |----------------------------------------------------------------------------- 
D |----------------------------------------------------------------------------- 
A |----------------------------------------------------------------------------- 
E |----------------------------------------------------------------------------- 


--4-----------------------4--6-----------4-----------------------------------4-- 
-------------------------------------------------------------------------------- 
-------------------------------------------------------------------------------- 
-------------------------------------------------------------------------------- 
-------------------------------------------------------------------------------- 
-------------------------------------------------------------------------------- 


---------6-------------|--8b----------4-----6L----------------------6b------| 
-----------------------|----------------------------------------------------| 
-----------------------|----------------------------------------------------| 
-----------------------|----------------------------------------------------| 
-----------------------|----------------------------------------------------| 
-----------------------|----------------------------------------------------| 


--8-----8b-------8L----------8b-6-----4-----6-------| 
----------------------------------------------------| 
----------------------------------------------------| 
----------------------------------------------------| 
----------------------------------------------------| 
----------------------------------------------------| 


--4-----------------------4--6-----------4L----------4------------1-------------- 
-------------------------------------------------------------------------------- 
-------------------------------------------------------------------------------- 
-------------------------------------------------------------------------------- 
-------------------------------------------------------------------------------- 
-------------------------------------------------------------------------------- 


--4-----------------------4--6-----------4-----------------------------------4-- 
-------------------------------------------------------------------------------- 
-------------------------------------------------------------------------------- 
-------------------------------------------------------------------------------- 
-------------------------------------------------------------------------------- 
-------------------------------------------------------------------------------- 


---------6-------------|--8b----------4-----6L----------------------6b------| 
-----------------------|----------------------------------------------------| 
-----------------------|----------------------------------------------------| 
-----------------------|----------------------------------------------------| 
-----------------------|----------------------------------------------------| 
-----------------------|----------------------------------------------------| 


--6b-6b-6b-6L---|--6b---| 
----------------|-------| 
----------------|-------| 
----------------|-------| 
----------------|-------| 
----------------|-------| 
		  

See also:

tabs Frank Sinatra - You'll Never Know tabs Bill Withers - Who is he and what is he to you tabs Sly and the family stone - Dance To The Music tabs Ariana Grande - Break Free tabs Otis Redding - I've Got Dreams To Remember tabs Ariana Grande - Right There (acoustic)
e-chords

Other versions:

tabs Grant Lee Buffalo - Fuzzy
auto scroll beats size up size down change color hide chords drawings
tab show chords e-chords YouTube Clip e-chords hide all tabs e-chords go to top tab

share