Graeme Allwright

Les Soeurs De La Misericorde

Graeme Allwright

tabs

by  TAMAMOREIRA

save to print version add songbook text version e-mail correct tuner
chordsukulelecavacokeyboardtabbassdrumsharmonicaflute Guitar Pro
close

there isn't a video lesson for this song

chords

Les Soeurs De La Misericorde

	  		

   Couplets : 

E |-------------|--0----------|-------------|--2----------|-------------| 
B |--0----------|-----3--1----|--0----------|--------1----|--0----------| 
G |-----0-------|-------------|-----0-------|-----2-------|-----0-------| 
D |--------0----|-------------|--------0----|--0----------|--------0----| 
A |-------------|--3----------|-------------|-------------|-------------| 
E |--3----------|-------------|--3----------|-------------|--3----------| 


-------------------------------|----------------------|--3-------------------| 
--1-----1--3--------1----------|--0-------------------|----------------------| 
-------------------------------|--------0--------0----|--------0--------0----| 
-------------------------------|-----0-----0----------|-----0-----0----------| 
--3----------------------------|----------------------|----------------------| 
-------------------------------|--3-----------3-------|--3-----------3-------| 


----------------------|----------------------|----------------------| 
--------------3-------|--------------2-------|--------------3-------| 
--------------4-------|-----------------2----|--------------4-------| 
--------4-------------|--------4-------------|--------4-------------| 
--2-------------------|----------------------|--2-------------------| 
----------------------|--2-------------------|----------------------| 


--------------2-------|-------------| 
-----------------2----|--------3----| 
----------------------|-----2-------| 
--------4-------------|--0----------| 
----------------------|-------------| 
--2-------------------|-------------| 


--2h-3h-2L-2----------------------------------------------|-------------| 
--------------------3-------------------------------------|--------3----| 
--------------------------------------2-------------------|-----2-------| 
----------------------------------------------------------|--0----------| 
----------------------------------------------------------|-------------| 
----------------------------------------------------------|-------------| 


--3--2----------------|-------------|-------------|-------------|-------------| 
--------3-------------|--1-----1----|--0----------|--1----------|--0----------| 
--------------2-------|-----2-------|-----0-------|-----2-------|-----0-------| 
----------------------|-------------|--------0----|--------3----|--------2----| 
----------------------|--0----------|-------------|-------------|-------------| 
----------------------|-------------|--3----------|--1----------|--0----------| 


-------------|--2h-3h-2L-2----------------------------------------------| 
--------3----|--------------------3-------------------------------------| 
-----2-------|--------------------------------------2-------------------| 
--0----------|----------------------------------------------------------| 
-------------|----------------------------------------------------------| 
-------------|----------------------------------------------------------| 


-------------|--3--2----------------|-------------|--0----------|-------------| 
--------3----|--------3-------------|--0----------|-----3--1----|--0----------| 
-----2-------|--------------2-------|-----0-------|-------------|-----0-------| 
--0----------|----------------------|--------0----|-------------|--------0----| 
-------------|----------------------|-------------|--3----------|-------------| 
-------------|----------------------|--3----------|-------------|--3----------| 


-------------|-------------| 
--3-----1----|--0----------| 
-----2-------|-----0-------| 
--0----------|--------0----| 
-------------|-------------| 
-------------|--3----------| 


Pont :  


E |-------------|-------------|--0--------------0----|--1--0-------|----|----| 
B |-----1--1----|--0----------|----------------------|--------3----|----|----| 
G |-----0--0----|-----0-------|--------0-------------|-------------|----|----| 
D |-----2--2----|--------0----|--------------2-------|-------------|-%--|-%--| 
A |--3----------|-------------|--3-------------------|-------------|----|----| 
E |-------------|--3----------|----------------------|-------------|----|----| 


-----------8----------|----|--------------5-------|----|----|----| 
-----10---------------|----|-----7----------------|----|----|----| 
--------10-------10---|----|--------7-------------|----|----|----| 
----------------------|-%--|----------------------|-%--|-%--|-%--| 
--8-------------------|----|--5-------------------|----|----|----| 
----------------------|----|----------------------|----|----|----| 
		  

See also:

tabs Deep Purple - Lazy tabs Deep Purple - Highway Star tabs Deep Purple - Demon's Eye tabs Deep Purple - Smoke on the water (easy ver.) tabs Deep Purple - Perfect Strangers tabs Deep Purple - Deep Purple - Smoke On The Water
e-chords

Other versions:

tabs Graeme Allwright - Les Soeurs De La Misericorde
auto scroll beats size up size down change color hide chords drawings
tab show chords e-chords YouTube Clip e-chords hide all tabs e-chords go to top tab

share