Good Charlotte

home > Good Charlotte

Walk By Tab

Good Charlotte

Difficulty: nolevelnolevel

tuner correct add songbook print version text version save to e-mail
chordsukulelecavacokeyboardtabbassdrumsharmonicsflute Guitar Pro
chords

Walk By

  		Riff Principal
e-|--Repetir 3x------|---------1x------------|
B-|------------------|-----------------------|
G-|---5--------------|---5---5---5-----------|
D-|-----5-3--3-3h5p3-|---5---5---5-----------|
A-|-3----------------|-3-3---3---3-----------|
E-|------------------|--(Bastante Palm Muted)|

Guitarra 1 toca o riff principal e guitarra 2 Toca: (C5), (G5),

No Verso é tocado esse riff, duas notas: DISTORÇÃO
B----13-
G-12----

Refrão: (C5), (A5),( G5), (F5)

Ponte: (B5), (C5), (G5), (F5)

Solo
e|-------3x-----------|-------------------------
B|--------------------|-------------------------
G|.--5---------------.|-55--77-7--77--99-99-9---
D|.----5-3--3-3h5p3h5.|-xx--xx-x--xx--xx-xx-x---
A|-3------------------|-33--55-5--55--77-77-7---
E|--------------------|-------------------------

e|-----------------|-------------------------
B|-----------------|-10/12-15-13-12-13~-12~--
G|.--5------------.|-------------------------
D|.----5-3-3h5p3h5.|-------------------------
A|-3---------------|-------------------------
E|-----------------|-------------------------

Fim.
	  

Search Paypal
auto scroll beats size up size down change color hide chords drawings
tab show chords e-chords YouTube Clip e-chords hide all tabs e-chords go to top tab