Good Charlotte

home > Good Charlotte

The Click Tab

Good Charlotte

Difficulty: nolevelnolevel

tuner correct add songbook print version text version save to e-mail
chordsukulelecavacokeyboardtabbassdrummharmonicsflute Guitar Pro
chords

The Click

  		 
INTRO PM = palm muted  
 
1st guitar, strum this while playing solo, 2x  
e|---------------------------------------------------------------------------|  
B|---------------------------------------------------------------------------|  
G|-7-------------------------------7-----------------------------------------|  
D|-7-------7-------5---------------7-------7-------5-------------------------|  
A|-5-------7-------5---------------5-------7-------5-------------------------|  
E|---------5-------3-----------------------5-------3-------------------------|  
 
2nd guitar solo: play 2x  
e|---------------------------------------------------------------------------|  
B|---------------------------------------------------------------------------|  
G|---------------------------------------------------------------------------|  
D|---2-4-2---2-4-2---2-4-2-4-5-4-2---2-4-2---2-4-2---------------------------|  
A|-5-------5-------5---------------5-------5-------5 <- Let hang-------------|  
E|---------------------------------------------------------------------------|  
 
VERSES  
1st guitar verses: PM 4X  
e|---------------------------------------------------------------------------|  
B|---------------------------------------------------------------------------|  
G|-7-------------------------------7-----------------------------------------|  
D|-7-------7-------5---------------7-------7-------5-------------------------|  
A|-5-------7-------5---------------5-------7-------5-------------------------|  
E|---------5-------3-----------------------5-------3-------------------------|  
 
2nd guitar, PM solo play twice after the first guitar plays verse twice  
e|---------------------------------------------------------------------------|  
B|---------------------------------------------------------------------------|  
G|---------------------------------------------------------------------------|  
D|--224422--224422--22442244554422--224422--224422--224422-------------------|  
A|55------55------55--------------55------55------55------5------------------|  
E|---------------------------------------------------------------------------|  
 
chorus: figure out the strumming sequence urself 2x  
you go out on Friday nights......  
e|---------------------------------------------------------------------------|  
B|---------------------------------------------------------------------------|  
G|-7-------------------------------------------------------------------------|  
D|-7-------------7-------------9-------------5-------------------------------|  
A|-5-------------7-------------9-------------5-------------------------------|  
E|---------------5-------------7-------------3-------------------------------|  
 
e|---------------------------------------------------------------------------|  
B|---------------------------------------------------------------------------|  
G|-7-------------------------------------------------------------------------|  
D|-7-------------7-------------5---------------------------------------------|  
A|-5-------------7-------------5-PM------------------------------------------|  
E|---------------5-------------3---------------------------------------------|  
 
play intro once again  
 
Bridge: 2x then strum G for a while  
sheeeee said she'd call............ she won't...............  
e|---------------------------------------------------------------------------|  
B|---------------------------------------------------------------------------|  
G|-7-------------------------------------------------------------------------|  
D|-7--------7-----------5---------------------------------5...............---|  
A|-5--------7-----------5---------------------------------5...............---|  
E|----------5-----------3---------------------------------3...............---|  
she won't.........  
then play again  
 
Then play the chorus w/o strumming, just short strums (sweet part)  
 
then play intro to end while singing 'but anyway..., I don't need u anyway...'  
stuff like that  
 
end on:  
e|---------------------------------------------------------------------------|  
B|---------------------------------------------------------------------------|  
G|-7-----------------------------------7-------------------------------------|  
D|-7--------7-----------5-----4-5-4-2--7-------------------------------------|  
A|-5--------7-----------5--------------5-------------------------------------|  
E|----------5-----------3----------------------------------------------------|  
 
SEQUENCE:  
intro2x  
verse1  
chorus  
intro  
verse2  
chorus  
bridge  
sweet part chorus  
intro w/ singing  
ending 
 
_______________________________________________________ 
Contribuição: Leandro da banda one-hundred([email protected]) 

	  

Full key step upFull key step up
Half key step upHalf key step up
Half key step downHalf key step down
Full key step downFull key step down
Search Paypal
auto scroll beats size up size down change color hide chords drawings
tab show chords e-chords YouTube Clip e-chords hide all tabs e-chords go to top tab