Good Charlotte

home > Good Charlotte

The Anthem Tab

Good Charlotte

Difficulty: BeginnerBeginner

tuner correct add songbook print version text version save to e-mail
chordsukulelecavacokeyboardtabbassdrummharmonicsflute Guitar Pro
chords

The Anthem

  		 
INTRO 
e|-------------------------| 
B|-------------------------| 
G|--6-------------6--------| 
D|--6--6--4--6----6--6--4--| 
A|--4--6--4--6----4--6--4--| 
E|-----4--2--4-------4--2--| 
 
e|-----------------------------------------------------------| 
B|-----------------------------------------------------------| 
G|--6-6--6-6-8-10------11-11-10-8-------5-5-6-8-----8-8-6-5--| 
D|--6-6--x-x-x-x--6-6--x--x--x--x--4-4--x-x-x-x--6--x-x-x-x--| 
A|--4-4--4-4-6-8--6-6--9--9--8--6--4-4--3-3-4-6--6--6-6-4-3--| 
E|----------------4-4--------------2-2-----------4-----------| 
 
VERSE 
e|------------------------------------------| 
B|------------------------------------------| 
G|--6------6------6-------------------------| 
D|--6--6---6--4---6--6--4----------6-6------| 
A|--4--6---4--4---4--6--4------4-4-----4-4--| 
E|-----4------2------4--2--2-2--------------| 
 
PRE-CHORUS 
e|--------------------| 
B|--------------------| 
G|--------6-----------| 
D|--8--4--6--8--4--6--| 
A|--8--4--4--8--4--6--| 
E|--6--2-----6--2--4--| 
                  {PM} 
CHORUS 
e|----------------------------------------------------| 
B|----------------------------------------------------| 
G|--6------------6--------------6------------6--------| 
D|--6--6--4--6---6--6--4--7~6---6--6--4--6---6--6--4--| 
A|--4--6--4--6---4--6--4--7~6---4--6--4--6---4--6--4--| 
E|-----4--2--4------4--2--5~4------4--2--4------4--2--| 
 
BRIDGE 
e|-----------------------| 
B|-----------------------| 
G|-----------------6-----| 
D|--8--6--4--6--8--6--6--| 
A|--8--6--4--6--8--4--6--| 
E|--6--4--2--4--6-----4--| 
   {PM.................}       
           
SOLO 
e|---------------------------------------------------------------------------------------------------------------| 
B|---------------------------------------------------------------------------------------------------------------| 
G|--10-10-10-8-/10-8--10-10-10-8-/10--11-11-11-10-/8-/6--10-10-10-8-/10----8-8-8-/10-/8--6-8-10--11-/10-/11-/10--| 
D|--x--x--x--x--x--x--x--x--x--x--x---x--x--x--x?--x--x--x--x--x--x--x-----x-x-x--x---x--x-x-x---x---x---x---x---| 
A|--8--8--8--6-/8--6--8--8--8--6-/8---9--9--9--8--/6-/4--8--8--8?-6-/8-----6-6-6-/8--/6--4-6-8---9--/8--/9--/8---| 
E|---------------------------------------------------------------------------------------------------------------| 
 
LETRA 
 
Itīs a new day, but it all feels old 
Itīs a good life, thatīs what Iīm told  
But everything, it all just feels the same     {VERSE 2X} 
And my high school, it felt more to me  
Like a jail cell, a penitentiary 
My time spent there it only made me see 
 
That I donīt ever wanna be like you  
I donīt wanna do the things you do 
Iīm never gonna hear the words you say     {PRE-CHORUS} 
And I donīt ever wanna. 
I donīt ever wanna be. 
 
You. 
Donīt wanna be just like you 
What Iīm saying is this is the anthem     {CHORUS} 
Throw all your hands up 
You, donīt wanna be you 
 
Go to college, a university  
Get a real job, thatīs what they said to me  
But I could never live the way they want     {VERSE 2X} 
Iīm gonna get by and just do my time 
Out of step while they all get in line 
Iīm just a minor threat, so pay no mind 
 
Do you really want to be like them 
Do you really wanna be another trend 
Do you wanna be part of that crowd     {PRE-CHORUS} 
Cause I donīt ever wanna. 
I donīt ever wanna be  
 
You. 
Donīt wanna be just like you 
What Iīm saying is.this is the anthem    {CHORUS} 
Throw all your hands up you. 
Donīt wanna be you. 
 
Shake it once, thatīs fine     {BRIDGE} 
Shake it twice, thatīs okay.                 
Shake it 3 times, your playing with yourself again.  
 
{SOLO} 
 
You. 
Donīt wanna be just like you, 
What Iīm saying is... this is the anthem              
Throw all your hands up 
Yīll got the feeling, sing if youīre with me     {CHORUS} 
You.donīt wanna be just like you (just like you) 
This is the anthem, throw all your hands up 
Yīll got the feeling, sing if your with mez' 
 
Another loser anthem (whoa) 4x     {CHORUS} 
 
_______________________________________________________ 
Contribuiįão: Digo([email protected]) 

	  

Search Paypal
auto scroll beats size up size down change color hide chords drawings
tab show chords e-chords YouTube Clip e-chords hide all tabs e-chords go to top tab