Good Charlotte

Predictable (ver. 2)

Good Charlotte

tabs Easy easy

by  JANDSON

save to print version add songbook text version e-mail correct tuner
chordsukulelecavacokeyboardtabbassdrumsharmonicaflute Guitar Pro
close

there isn't a video lesson for this song

chords

Predictable (ver. 2)

	  		e|------------------------------------------------------------------| 
B|------------------------------------------------------------------| 
G|------------------------------------------------------------------| 
D|-9-9--9-9--10-10--10-10--5-5--5-5--5-5--5-5-----------------------| 
A|-7-7--7-7--7--7----7--7--2-2--2-2--3-3--3-3-----------------------| 
E|------------------------------------------------------------------| 
 
Guitarra 2  
 
e|------12-11--------------------------| 
B|---12--------------------------------| 
G|-------------------------------------| 
 
guitarra 2, ele alterna entre esses dois riffs 
e|------12-11----9---7-----------------| 
B|---12--------------------------------| 
G|-------------------------------------| 
 
 
e|----------------------------------------------------------| 
B|----------------------------------------------------------| 
G|----------------------------------------------------------| 
D|--9-9--9-9--10-10--10-10----------2-2---2-2---2-2----2----| 
A|--7-7--7-7--7--7----7--7----------2-2---2-2---2-2----2----| 
E|----------------------------------0-0---0-0---0-0--0-0----| 
 
 
 
e|------------------| 
B|------------------| 
G|--4---------------| 
D|--4---2---3---2---| 
A|--2---2---3---2---| 
E|------0---1---0---| 
 
 
 
e|-------| 
B|-------| 
G|-------| 
D|--6----| 
A|--6----| 
E|--4----| 
 
 
 
e|---------------------------------| 
B|---------------------------------| 
G|------------------4--------------| 
D|--2---4---2---6---4---4---2---6--| 
A|--2---4---2---6---2---4---2---6--| 
E|--0---2---0---4-------2---0---4--| 
 
 
e|--6-7-4-6---4--------------4-------11--11--11--11-7-7-7-7-7-7---------| 
B|----------5---4-5---4---4--------11--12--9---11--5-9-5-9-5-9--0-4-7-8-| 
G|------------------6---4----1------------------------------------------| 
D|----------------------------------------------------------------------| 
A|----------------------------------------------------------------------| 
E|----------------------------------------------------------------------| 
 
 
 
e|---------------------------| 
B|---------------------------| 
G|---------------------------| 
D|--6-6---6-6-------------2--| 
A|--6-6---6-6---6-6---6---2--| 
E|--4-4---4-4---0-0---0---0--| 
 
 
 
e|--------------------------| 
B|--------------------------| 
G|--4-4---4-4---4-4---------| 
D|--4-4---4-4---4-4-----6---| 
A|--2-2---2-2---2-2-----6---| 
E|--------------------4-4---| 
 
 
by: JaNdSoN 
[email protected] 
		  

See also:

tabs Red Hot Chili Peppers - Under the Bridge tabs Eye of the tiger - Eye of the tiger tabs Los Lonely Boys - Heaven tabs Red Hot Chili Peppers - Snow (hey oh) tabs Jeff Buckley - Hallelujah tabs Red Hot Chili Peppers - Venice Queen
e-chords

Other versions:

tabs Good Charlotte - Predictable tabs Good Charlotte - Predictable (ver. 2)
auto scroll beats size up size down change color hide chords drawings
tab show chords e-chords YouTube Clip e-chords hide all tabs e-chords go to top tab

share