Good Charlotte

home > Good Charlotte

Predictable Tab

Good Charlotte

Difficulty: IntermediateIntermediate

tuner correct add songbook print version text version save to e-mail
chordsukulelecavacokeyboardtabbassdrumsharmonicsflute Guitar Pro
chords

Predictable

  		 
Intro/Verso  
 
e|------------------------------------------------------------------| 
B|------------------------------------------------------------------| 
G|--8-8---8-8---9-9---9-9---9---9-----------------------------------| 
D|--9-9---9-9---9-9---9-9---9---9---9-9---9-9---9-9---9-9---9---9---| 
A|----------------------------------6-6---6-6---7-7---7-7---7---7---| 
E|------------------------------------------------------------------| 
 
 
 
e|------12-11---------9-7--------------| 
B|---12--------------------------------| 
G|-------------------------------------| 
D|-------------------------------------| 
A|-------------------------------------| 
E|-------------------------------------| 
 
 
 
e|----------------------------------------------------------| 
B|----------------------------------------------------------| 
G|--8-8---8-8---9-9---9-9---9---9---------------------------| 
D|--9-9---9-9---9-9---9-9---9---9---2-2---2-2---2-2----2----| 
A|----------------------------------2-2---2-2---2-2----2----| 
E|----------------------------------0-0---0-0---0-0--0-0----| 
 
 
 
e|------------------| 
B|------------------| 
G|--4---------------| 
D|--4---2---3---2---| 
A|--2---2---3---2---| 
E|------0---1---0---| 
 
 
 
e|-------| 
B|-------| 
G|-------| 
D|--6----| 
A|--6----| 
E|--4----| 
 
 
 
e|---------------------------------| 
B|---------------------------------| 
G|------------------4--------------| 
D|--2---4---2---6---4---4---2---6--| 
A|--2---4---2---6---2---4---2---6--| 
E|--0---2---0---4-------2---0---4--| 
 
 
e|--6-7-4-6---4--------------4-------11--11--11--11-7-7-7-7-7-7---------| 
B|----------5---4-5---4---4--------11--12--9---11--5-9-5-9-5-9--0-4-7-8-| 
G|------------------6---4----1------------------------------------------| 
D|----------------------------------------------------------------------| 
A|----------------------------------------------------------------------| 
E|----------------------------------------------------------------------| 
 
 
 
e|---------------------------| 
B|---------------------------| 
G|---------------------------| 
D|--6-6---6-6-------------2--| 
A|--6-6---6-6---6-6---6---2--| 
E|--4-4---4-4---0-0---0---0--| 
 
 
 
e|--------------------------| 
B|--------------------------| 
G|--4-4---4-4---4-4---------| 
D|--4-4---4-4---4-4-----6---| 
A|--2-2---2-2---2-2-----6---| 
E|--------------------4-4---| 
 
 
_______________________________________________________ 
Contribuição: **Filipe**([email protected]) 

	  

Search Paypal
auto scroll beats size up size down change color hide chords drawings
tab show chords e-chords YouTube Clip e-chords hide all tabs e-chords go to top tab