Good Charlotte

home > Good Charlotte

March On Tab

Good Charlotte

Difficulty: IntermediateIntermediate

by Sveddan

tuner correct add songbook print version text version save to e-mail
chordsukulelecavacokeyboardtabbassdrumsharmonicsflute Guitar Pro
chords

March On

  		-:Verse 1:- 
          Don't     cry...... 
E|-----------------|-----------------|-------------1---| 
B|---1-----1-------|---------1-------|-----3---------3-| 
G|-----2-----2-----|---0---0---0-----|---2---2---2-----| 
D|-------3-----3---|-2-----------2---|-0-------3-------| 
A|-3---------------|-3---3---------3-|-0---------------| 
E|-1-------------1-|-0---------------|-----------------| 

E|-----------------|-----------------|-----------------| 
B|-------1---------|-------1---------|-------1---1-----| 
G|-----0---0-------|-----3---3---3---|-----0-------0---| 
D|---2-------2---2-|-3-3-------3-----|---2-----2-----2-| 
A|-3-----------3---|-1-------------1-|-3---------------| 
E|-3---------------|-----------------|-3---------------| 

E|-----------------|-----------------| 
B|-------1---------|---------1-------| 
G|-----2---------2-|-----2-----2---2-| 
D|---3-----3---3---|---3---3-----3---| 
A|-3---------3-----|-3---------------| 
E|-1---------------|-1---------------| 

-:Chorus 1:- 
     Like soldiers      march on...... 
E|-----------------|-----------------|-----------------| 
B|-------1---1---1-|-------1---------|-----------1-----| 
G|-----3-------3---|-----0-----0---0-|-------2-----2---| 
D|-3-3-----------3-|-2-2---------2---|-----3---3-----3-| 
A|-1-------1-------|-3-------3-------|---3-------------| 
E|-----------------|-----------------|-1---------------| 

E|-----------------|-----------------|-----------------| 
B|-------1---1-----|-------1---------|-------1---------| 
G|-------------0---|-----3-----3---3-|-----0-----0---0-| 
D|-----2---2-----2-|---3---------3---|---2---------2---| 
A|---3-------------|-1-------3-------|-3-------3-------| 
E|-0---------------|-----------------|-----------------| 

E|-----------------|---------------------| 
B|-------1---1-----|-------1-------1-x-x-| 
G|-----2---------2-|-----2-----2---2-x-x-| 
D|---3-----3---3---|---3---------3---0-0-| 
A|-3---------------|-3-------3-------0-0-| 
E|-1---------------|-1-------------------| 

-:Verse 2:- 

-:Chorus 2:- 

-:Bridge:- 

E|--------------------------|-0-----0--0--0----0-------| 
B|-3-----3--3--3----3--x--x-|-1-----1--1--1----1--x--x-| 
G|-2-----2--2--2----2--x--x-|-0-----0--0--0----0--x--x-| 
D|-0-----0--0--0----0--x--x-|-2-----2--2--2----2--x--x-| 
A|-0-----0--0--0----0--3--3-|-3-----3--3--3----3--3--0-| 
E|--------------------------|--------------------------| 

E|-1-----1--1--1----1--1--1-|-1--1--1----1-------| 
B|-1-----1--1--1----1--1--1-|-1--1--1----1--x--x-| 
G|-3-----3--3--3----3--3--3-|-3--3--3----3--x--x-| 
D|-3-----3--3--3----3--3--3-|-3--3--3----3--0--0-| 
A|-1-----1--1--1----1--1--1-|-1--1--1----1--0--0-| 
E|--------------------------|--------------------| 

-:Chorus 3:- 

E|-----------------|-----------------|-----------------| 
B|-----------------|-----------------|-------1---1-----| 
G|-3---3-3---3-3---|-3---3-3---3-3-x-|-----3-------3---| 
D|-3-3-3-3-3-3-3-3-|-3-3-3-3-3-3-3-x-|-3-3-----3-----3-| 
A|-1-1-1-1-1-1-1-1-|-1-1-1-1-1-1-1-0-|-1---------------| 
E|-----------------|-----------------|-----------------| 

E|-----------------|-----------------|-----------------| 
B|-------1---1-----|-------1---1-----|-------1---1-----| 
G|-----0-------0---|-----2-------2---|-----0-------2---| 
D|-2-2-----2-----2-|-3-3-----3-----3-|---2-----2-----3-| 
A|-3---------------|-1---------------|-3---------------| 
E|-----------------|-----------------|-0---------------| 

E|-----------------|-----------------| 
B|-------1-------1-|-------1-------1-| 
G|-----3-----3-----|-----0-----0-----| 
D|-3-3-----3---3---|-2-2-----2---2---| 
A|-1---------------|-3---------------| 
E|-----------------|-----------------| 

-:Outro:- 

E|-----------------|-----------------| 
B|-----------------|-1---1-1---1-1---| 
G|-3---3-3---3-3---|-0---0-0---0-0---| 
D|-3-3-3-3-3-3-3-3-|-2-2-2-2-2-2-2-2-| 
A|-1-1-1-1-1-1-1-1-|-3-3-3-3-3-3-3-2-| 
E|-----------------|-----------------| 

	  

Search Paypal
auto scroll beats size up size down change color hide chords drawings
tab show chords e-chords YouTube Clip e-chords hide all tabs e-chords go to top tab