Good Charlotte

home > Good Charlotte

Little Things Tab

Good Charlotte

Difficulty: nolevelnolevel

by Misis

tuner correct add songbook print version text version save to e-mail
chordsukulelecavacokeyboardtabbassdrummharmonicsflute Guitar Pro
chords

Little Things

  		E||---------------------------|---------------------------|| 
B||---------------------------|---------------------------|| 
G||*--6-6-6-6-6---------------|-----------------2--2-----*|| 
D||*--6-6-6-6-6------6--6--5--|--4-4-4-4-4------2--2--2--*|| 
A||---4-4-4-4-4------6--6--5--|--4-4-4-4-4------0--0--2---|| 
E||------------------4--4--3--|--2-2-2-2-2------------0---|| 
 
 
 
---------------------------|---------------------------||-----|-----||----| 
---------------------------|---------------------------||-----|-----||----| 
*--6-6-6-6-6---------------|-----------------2--2-----*||*----|----*||----| 
*--6-6-6-6-6------6--6--5--|--4-4-4-4-4------2--2--2--*||*----|----*||----| 
---4-4-4-4-4------6--6--5--|--4-4-4-4-4------0--0--2---||-----|-----||----| 
------------------4--4--3--|--2-2-2-2-2------------0---||-----|-----||----| 
 
 
                               2x 
|-----|-----||----||-----|-----||----|--------------------------| 
|-----|-----||----||-----|-----||----|--------------------------| 
|*----|----*||----||*----|----*||----|--6-6-6-6-6---------------| 
|*----|----*||----||*----|----*||----|--6-6-6-6-6------6--6--5--| 
|-----|-----||----||-----|-----||----|--4-4-4-4-4------6--6--5--| 
|-----|-----||----||-----|-----||----|-----------------4--4--3--| 
 
 
 
--------------------------||-----------------------------------| 
--------------------------||-----------------------------------| 
-----------------2--2-----||*--6-6-6-6-6-6-6-6-6---------------| 
--4-4-4-4-4------2--2--2--||*--6-6-6-6-6-6-6-6-6-6-6-6-6-6-6-5-| 
--4-4-4-4-4------0--0--2--||---4-4-4-4-4-4-4-4-4-6-6-6-6-6-6-5-| 
--2-2-2-2-2------------0--||---------------------4-4-4-4-4-4-3-| 
 
 
 
-----------------------------------||----------------------------------| 
-----------------------------------||----------------------------------| 
------------------2-2-2-2---------*||------------------2-2-2-2---------| 
--4-4-4-4-4-4-4-4-2-2-2-2-2-2-2-2-*||--4-4-4-4-4-4-4-4-2-2-2-2-2-2-2-2-| 
--4-4-4-4-4-4-4-4-0-0-0-0-2-2-2-2--||--4-4-4-4-4-4-4-4-0-0-0-0-2-2-2-2-| 
--2-2-2-2-2-2-2-2---------0-0-0-0--||--2-2-2-2-2-2-2-2---------0-0-0-0-| 
 
 
                                                                 2x 
----------------------------------||-----------------------------|| 
----------------------------------||-----------------------------|| 
------------------2-2-2-2---------||*---------------------------*|| 
--4-4-4-4-4-4-4-4-2-2-2-2-2-2-2-2-||*--4--4--4--4-4/7--7--7--7--*|| 
--4-4-4-4-4-4-4-4-0-0-0-0-2-2-2-2-||---4--4--4--4-4/7--7--7--7---|| 
--2-2-2-2-2-2-2-2---------0-0-0-0-||---2--2--2--2-2/5--5--5--5---|| 
 
 
 
---------------------------||---------------------------| 
---------------------------||---------------------------| 
---------------------------||*--6-6-6-6-6---------------| 
--4--4--4--4-4/5--6--7--8--||*--6-6-6-6-6------6--6--5--| 
--4--4--4--4-4/5--6--7--8--||---4-4-4-4-4------6--6--5--| 
--2--2--2--2-2/3--4--5--6--||------------------4--4--3--| 
 
 
 
---------------------------||-------------------|| 
---------------------------||-------------------|| 
-----------------2--2-----*||--6----------------|| 
--4-4-4-4-4------2--2--2--*||--6----------------|| 
--4-4-4-4-4------0--0--2---||--4----------------|| 
--2-2-2-2-2------------0---||-------------------|| 

	  

Search Paypal
auto scroll beats size up size down change color hide chords drawings
tab show chords e-chords YouTube Clip e-chords hide all tabs e-chords go to top tab