Good Charlotte

home > Good Charlotte

Life Changes Tab

Good Charlotte

Difficulty: nolevelnolevel

by tercmoraes

tuner correct add songbook print version text version save to e-mail
chordsukulelecavacokeyboardtabbassdrumsharmonicsflute Guitar Pro
chords

Life Changes

  		
 Intro 

e|----------------------------------------------------------------------| 
B|--9-9-9-9-9-9-9-9--9-9-9-9-9-9-9-9--9-9-9-9-9-9-9-9--9-9-9-9-9-9-9-9--|  
G|--9-9-9-9-9-9-9-9--9-9-9-9-9-9-9-9--9-9-9-9-9-9-9-9--9-9-9-9-9-9-9-9--| 
D|----------------------------------------------------------------------| 
A|----------------------------------------------------------------------| 
E|----------------------------------------------------------------------| 

e|----------------------------------------------------| 
B|----------------------------------------------------| 
G|----------------------------------------------------| 
D|----------------------------------------------------| 
A|--7---7---(7)X-X--4-4-X-X-2---2---2-2-2--2--2--2-2--| 
E|--5---5---(5)X-X--2-2-X-X-0---0---0-0-0--0--0--0-0--| 


 Verse 

e|----------------------------------------------------------------------| 
B|--9-9-9-9-9-9-9-9--9-9-9-9-9-9-9-9--9-9-9-9-9-9-9-9--9-9-9-9-9-9-9-9--| harmonics on  
G|--9-9-9-9-9-9-9-9--9-9-9-9-9-9-9-9--9-9-9-9-9-9-9-9--9-9-9-9-9-9-9-9--| last 4 notes 
D|----------------------------------------------------------------------| 
A|----------------------------------------------------------------------| 
E|----------------------------------------------------------------------| 

e|----------------------------------------------------| 
B|----------------------------------------------------| 
G|----------------------------------------------------| 
D|----------------------------------------------------| 
A|--7---7---(7)X-X--4-4-X-X-2---2---2-2-2--2--2--2-2--| 
E|--5---5---(5)X-X--2-2-X-X-0---0---0-0-0--0--0--0-0--| 

e|----------------------------------------------------------------------| 
B|--9-9-9-9-9-9-9-9--9-9-9-9-9-9-9-9--9-9-9-9-9-9-9-9--9-9-9-9-9-9-9-9--| 
G|--9-9-9-9-9-9-9-9--9-9-9-9-9-9-9-9--9-9-9-9-9-9-9-9--9-9-9-9-9-9-9-9--|  
D|--6-6-6-6-6-6-6-6--6-6-6-6-6-6-6-6--9-9-9-9-9-9-9-9-------------------|   
A|----------------------------------------------------------------------| 
E|----------------------------------------------------------------------| 

e|----------------------------------------------------| 
B|----------------------------------------------------| 
G|----------------------------------------------------| 
D|----------------------------------------------------| 
A|--7---7---(7)X-X--4-4-X-X-2---2---2-2-2--2--2--2-2--| 
E|--5---5---(5)X-X--2-2-X-X-0---0---0-0-0--0--0--0-0--| 


 Pre-Chorus 

e|-------------------------------------|         e|---------------------------------|            
B|-------------------------------------|         B|--------12----12-------12----12--| 
G|-------------------------------------|   or    G|-----14----14-------14----14-----| 
D|-------------------------------------|  Gtr-2  D|--14-------------14--------------|   
A|--7-7-7-7-7-7-7-7---7-7-7-7-7-7-7-7--|         A|---------------------------------| 
E|--5-5-5-5-5-5-5-5---5-5-5-5-5-5-5-5--|         E|---------------------------------| 
    
e|-------------------------------------|         e|---------------------------------| 
B|-------------------------------------|         B|--------12----12-------12----12--| 
G|-------------------------------------|   or    G|-----13----13-------13----13-----| 
D|-------------------------------------|  Gtr-2  D|--13-------------13--------------| 
A|--9-9-9-9-9-9-9-9---9-9-9-9-9-9-9-9--|         A|---------------------------------| 
E|--7-7-7-7-7-7-7-7---7-7-7-7-7-7-7-7--|         E|---------------------------------| 

e|----------------------------------------------------|         e|--------------------------| 
B|----------------------------------------------------|         B|-------9---9-------9---9--| 
G|----------------------------------------------------|   or    G|-----9---9-------9---9----| 
D|----------------------------------------------------|  Gtr-2  D|--11----------11----------| 
A|--11-11-11-11-11-11-11-11--11-11-11-11-11-11-11-11--|         A|--------------------------| 
E|--9--9--9--9--9--9--9--9---9--9--9--9--9--9--9--9---|         E|--------------------------| 


 Chorus 

e|--9---9---9---9---9---9---9---9-----5--5--5--5--5--5--5--5---| 
B|--9---9---9---9---9---9---9---9-----5--5--5--5--5--5--5--5---| 
G|--9---9---9---9---9---9---9---9-----6--6--6--6--6--6--6--6---| 
D|--11--11--11--11--11--11--11--11----7--7--7--7--7--7--7--7---| 
A|--11--11--11--11--11--11--11--11----7--7--7--7--7--7--7--7---| 
E|--9---9---9---9---9---9---9---9-----5--5--5--5--5--5--5--5---| 

e|--0--0--0--0--0--0--0--0----7--7--7--7--7--7--7--7---| 
B|--0--0--0--0--0--0--0--0----7--7--7--7--7--7--7--7---| 
G|--1--1--1--1--1--1--1--1----8--8--8--8--8--8--8--8---| 
D|--2--2--2--2--2--2--2--2----9--9--9--9--9--9--9--9---| 
A|--2--2--2--2--2--2--2--2----9--9--9--9--9--9--9--9---| 
E|--0--0--0--0--0--0--0--0----7--7--7--7--7--7--7--7---| 

                play Chorus twice 


e|----------------------------------------------------------------------| 
B|--9-9-9-9-9-9-9-9--9-9-9-9-9-9-9-9--9-9-9-9-9-9-9-9--9-9-9-9-9-9-9-9--|  
G|--9-9-9-9-9-9-9-9--9-9-9-9-9-9-9-9--9-9-9-9-9-9-9-9--9-9-9-9-9-9-9-9--| 
D|----------------------------------------------------------------------| 
A|----------------------------------------------------------------------| 
E|----------------------------------------------------------------------| 

e|---------------------------------------------------| 
B|---------------------------------------------------| 
G|---------------------------------------------------| 
D|---------------------------------------------------| 
A|--7---7---(7)X-X-4-4--6--2---2---2-2-2--2--2--2-2--| 
E|--5---5---(5)X-X-2-2--4--0---0---0-0-0--0--0--0-0--| 


 Verse 

e|----------------------------------------------------------------------| 
B|--9-9-9-9-9-9-9-9--9-9-9-9-9-9-9-9--9-9-9-9-9-9-9-9--9-9-9-9-9-9-9-9--|  
G|--9-9-9-9-9-9-9-9--9-9-9-9-9-9-9-9--9-9-9-9-9-9-9-9--9-9-9-9-9-9-9-9--| 
D|----------------------------------------------------------------------| 
A|----------------------------------------------------------------------| 
E|----------------------------------------------------------------------| 

e|---------------------------------------------------| 
B|---------------------------------------------------| 
G|---------------------------------------------------| 
D|---------------------------------------------------| 
A|--7---7---(7)X-X-4-4--6--2---2---2-2-2--2--2--2-2--| 
E|--5---5---(5)X-X-2-2--4--0---0---0-0-0--0--0--0-0--| 

                   play VERSE twice 


 Pre-Chorus 

e|-------------------------------------|         e|---------------------------------|            
B|-------------------------------------|         B|--------12----12-------12----12--| 
G|-------------------------------------|   or    G|-----14----14-------14----14-----| 
D|-------------------------------------|  Gtr-2  D|--14-------------14--------------|   
A|--7-7-7-7-7-7-7-7---7-7-7-7-7-7-7-7--|         A|---------------------------------| 
E|--5-5-5-5-5-5-5-5---5-5-5-5-5-5-5-5--|         E|---------------------------------| 
    
e|-------------------------------------|         e|---------------------------------| 
B|-------------------------------------|         B|--------12----12-------12----12--| 
G|-------------------------------------|   or    G|-----13----13-------13----13-----| 
D|-------------------------------------|  Gtr-2  D|--13-------------13--------------| 
A|--9-9-9-9-9-9-9-9---9-9-9-9-9-9-9-9--|         A|---------------------------------| 
E|--7-7-7-7-7-7-7-7---7-7-7-7-7-7-7-7--|         E|---------------------------------| 

e|----------------------------------------------------|         e|--------------------------| 
B|----------------------------------------------------|         B|-------9---9-------9---9--| 
G|----------------------------------------------------|   or    G|-----9---9-------9---9----| 
D|----------------------------------------------------|  Gtr-2  D|--11----------11----------| 
A|--11-11-11-11-11-11-11-11--11-11-11-11-11-11-11-11--|         A|--------------------------| 
E|--9--9--9--9--9--9--9--9---9--9--9--9--9--9--9--9---|         E|--------------------------| 


 Chorus 

e|--9---9---9---9---9---9---9---9-----5--5--5--5--5--5--5--5---| 
B|--9---9---9---9---9---9---9---9-----5--5--5--5--5--5--5--5---| 
G|--9---9---9---9---9---9---9---9-----6--6--6--6--6--6--6--6---| 
D|--11--11--11--11--11--11--11--11----7--7--7--7--7--7--7--7---| 
A|--11--11--11--11--11--11--11--11----7--7--7--7--7--7--7--7---| 
E|--9---9---9---9---9---9---9---9-----5--5--5--5--5--5--5--5---| 

e|--0--0--0--0--0--0--0--0----7--7--7--7--7--7--7--7---| 
B|--0--0--0--0--0--0--0--0----7--7--7--7--7--7--7--7---| 
G|--1--1--1--1--1--1--1--1----8--8--8--8--8--8--8--8---| 
D|--2--2--2--2--2--2--2--2----9--9--9--9--9--9--9--9---| 
A|--2--2--2--2--2--2--2--2----9--9--9--9--9--9--9--9---| 
E|--0--0--0--0--0--0--0--0----7--7--7--7--7--7--7--7---| 

                play Chorus twice 


 Bridge 

e|-----------------------------------------------| 
B|-----------------------------------------------| 
G|-----------------------------------------------| 
D|--2---2/7---7---7--X-X--2---2/9---9---9--X-X---| low distortion 
A|--2---2/7---7---7--X-X--2---2/9---9---9--X-X---| 
E|--0---0-5---5---5--X-X--0---0-7---7---7--X-X---| 

e|-----------------------------------------------| 
B|-----------------------------------------------| 
G|-----------------------------------------------| 
D|--2---2/7---7---7--X-X--2---2/9---9-9--X-X-X-X-| low distortion 
A|--2---2/7---7---7--X-X--2---2/9---9-9--X-X-X-X-| 
E|--0---0-5---5---5--X-X--0---0-7---7-7--X-X-X-X-| 
                                                            PM---------------------------------------|   
e|-----------------------------------------------|         e|------------------------------------------| 
B|-----------------------------------------------|         B|--9-----10-----10--------9-----7-----7----| 
G|-----------------------------------------------|   or    G|----9------9------9--------9-----9-----9--| 
D|--2---2/7---7---7--X-X--2---2/9---9---9--X-X---|  Gtr-2  D|------9------9---------------9-----9------| 
A|--2---2/7---7---7--X-X--2---2/9---9---9--X-X---|         A|------------------------------------------| 
E|--0---0-5---5---5--X-X--0---0-7---7---7--X-X---|         E|------------------------------------------| 
                                                             
                                                            PM---------------------------------------| 
e|-----------------------------------------------|         e|------------------------------------------| 
B|-----------------------------------------------|         B|--9-----10-----10--------9-----7-----7----| 
G|-----------------------------------------------|   or    G|----9------9------9--------9-----9-----9--| 
D|--2---2/7---7---7--X-X--9--9-9--9---9--9-9--9--|  Gtr-2  D|------9------9---------------9-----9------| 
A|--2---2/7---7---7--X-X--9--9-9--9---9--9-9--9--|         A|------------------------------------------| 
E|--0---0-5---5---5--X-X--7--7-7--7---7--7-7--7--|         E|------------------------------------------| 

                                                            PM---------------------------------------| 
e|-----------------------------------------------|         e|------------------------------------------| 
B|-----------------------------------------------|         B|-9-----10-----10---------9-----7-----7----| 
G|-----------------------------------------------|   or    G|---9------9------9---------9-----9-----9--| 
D|--2---2/7---7---7--X-X--2---2/9---9---9--X-X---|  Gtr-2  D|-----9------9----------------9-----9------| 
A|--2---2/7---7---7--X-X--2---2/9---9---9--X-X---|         A|------------------------------------------| 
E|--0---0-5---5---5--X-X--0---0-7---7---7--X-X---|         E|------------------------------------------| 

                                                            PM-----------------| 
e|-----------------------|                                 e|--------------------| 
B|-----------------------|                                 B|-9-----10-----10----| 
G|-----------------------|                           or    G|---9------9------9--| 
D|--2---2/7---7---7--X-X-|                          Gtr-2  D|-----9------9-------| 
A|--2---2/7---7---7--X-X-|                                 A|--------------------| 
E|--0---0-5---5---5--X-X-|                                 E|--------------------| 

                                                            PM-----------------| 
e|-------------------------|                               e|------------------------------------------| 
B|-------------------------|                         or    B|-7------7------7-------7--7--7--7--7\-----| 
G|-------------------------|                        Gtr-2  G|---9------9------9-----8--8--8--8--8\-----| 
D|--9----9--------9----9\--|                               D|-----9------9-----------------------------| 
A|--9----9--------9----9\--|                               A|------------------------------------------| 
E|--7----7--------7----7\--|                               E|------------------------------------------| 


e|-----------------------------------------------------------| 
B|-----------------------------------------------------------| 
G|-----------------------------------------------------------| 
D|--11--11--11--11--11--11--11--11---7--7--7--7--7--7--7--7--| clean & all 
A|--11--11--11--11--11--11--11--11---7--7--7--7--7--7--7--7--| downstrokes 
E|--9---9---9---9---9---9---9---9----5--5--5--5--5--5--5--5--| 

e|---------------------------------------------------| 
B|---------------------------------------------------| 
G|---------------------------------------------------| 
D|--2--2--2--2--2--2--2--2---9--9--9--9--9--9--9--9--| clean & all 
A|--2--2--2--2--2--2--2--2---9--9--9--9--9--9--9--9--| downstrokes 
E|--0--0--0--0--0--0--0--0---7--7--7--7--7--7--7--7--| 

e|-----------------------------------------------------------| 
B|-----------------------------------------------------------| 
G|-----------------------------------------------------------| 
D|--11--11--11--11--11--11--11--11---7--7--7--7--7--7--7--7--| clean & all 
A|--11--11--11--11--11--11--11--11---7--7--7--7--7--7--7--7--| downstrokes 
E|--9---9---9---9---9---9---9---9----5--5--5--5--5--5--5--5--| 

e|--------------------------| 
B|--------------------------| 
G|--------------------------| 
D|--2--2--2--2--2--2--2--2--| clean & all 
A|--2--2--2--2--2--2--2--2--| downstrokes 
E|--0--0--0--0--0--0--0--0--| 

 PM----------| 
e|--------------------| 
B|--------------------| 
G|--------------------| 
D|--9--9--9--9---9\---| distortion 
A|--9--9--9--9---9\---| 
E|--7--7--7--7---7\---| 


 Chorus 

e|--9---9---9---9---9---9---9---9-----5--5--5--5--5--5--5--5---| 
B|--9---9---9---9---9---9---9---9-----5--5--5--5--5--5--5--5---| 
G|--9---9---9---9---9---9---9---9-----6--6--6--6--6--6--6--6---| 
D|--11--11--11--11--11--11--11--11----7--7--7--7--7--7--7--7---| 
A|--11--11--11--11--11--11--11--11----7--7--7--7--7--7--7--7---| 
E|--9---9---9---9---9---9---9---9-----5--5--5--5--5--5--5--5---| 


e|--0--0--0--0--0--0--0--0----7--7--7--7--7--7--7--7---| 
B|--0--0--0--0--0--0--0--0----7--7--7--7--7--7--7--7---| 
G|--1--1--1--1--1--1--1--1----8--8--8--8--8--8--8--8---| 
D|--2--2--2--2--2--2--2--2----9--9--9--9--9--9--9--9---| 
A|--2--2--2--2--2--2--2--2----9--9--9--9--9--9--9--9---| 
E|--0--0--0--0--0--0--0--0----7--7--7--7--7--7--7--7---| 


e|--9---9---9---9---9---9---9---9-----5--5--5--5--5--5--5--5---| 
B|--9---9---9---9---9---9---9---9-----5--5--5--5--5--5--5--5---| 
G|--9---9---9---9---9---9---9---9-----6--6--6--6--6--6--6--6---| 
D|--11--11--11--11--11--11--11--11----7--7--7--7--7--7--7--7---| 
A|--11--11--11--11--11--11--11--11----7--7--7--7--7--7--7--7---| 
E|--9---9---9---9---9---9---9---9-----5--5--5--5--5--5--5--5---| 


e|--0--0--0--0--0--0--0--0----7--X-X-X-X--7--X-X-X-X--7--X-X---| 
B|--0--0--0--0--0--0--0--0----7--X-X-X-X--7--X-X-X-X--7--X-X---| 
G|--1--1--1--1--1--1--1--1----8--X-X-X-X--8--X-X-X-X--8--X-X---| 
D|--2--2--2--2--2--2--2--2----9--X-X-X-X--9--X-X-X-X--9--X-X---| 
A|--2--2--2--2--2--2--2--2----9--X-X-X-X--9--X-X-X-X--9--X-X---| 
E|--0--0--0--0--0--0--0--0----7--X-X-X-X--7--X-X-X-X--7--X-X---| 
           

e|--9---9---9---9---9---9---9---9-----5--5--5--5--5--5--5--5---| 
B|--9---9---9---9---9---9---9---9-----5--5--5--5--5--5--5--5---| 
G|--9---9---9---9---9---9---9---9-----6--6--6--6--6--6--6--6---| 
D|--11--11--11--11--11--11--11--11----7--7--7--7--7--7--7--7---| 
A|--11--11--11--11--11--11--11--11----7--7--7--7--7--7--7--7---| 
E|--9---9---9---9---9---9---9---9-----5--5--5--5--5--5--5--5---| 


e|--0--0--0--0--0--0--0--0----7--X-X-X-X--7--X-X-X-X--7--X-X---| 
B|--0--0--0--0--0--0--0--0----7--X-X-X-X--7--X-X-X-X--7--X-X---| 
G|--1--1--1--1--1--1--1--1----8--X-X-X-X--8--X-X-X-X--8--X-X---| 
D|--2--2--2--2--2--2--2--2----9--X-X-X-X--9--X-X-X-X--9--X-X---| 
A|--2--2--2--2--2--2--2--2----9--X-X-X-X--9--X-X-X-X--9--X-X---| 
E|--0--0--0--0--0--0--0--0----7--X-X-X-X--7--X-X-X-X--7--X-X---| 


e|--9---9---9---9---9---9---9---9-----5--5--5--5--5--5--5--5---| 
B|--9---9---9---9---9---9---9---9-----5--5--5--5--5--5--5--5---| 
G|--9---9---9---9---9---9---9---9-----6--6--6--6--6--6--6--6---| 
D|--11--11--11--11--11--11--11--11----7--7--7--7--7--7--7--7---| 
A|--11--11--11--11--11--11--11--11----7--7--7--7--7--7--7--7---| 
E|--9---9---9---9---9---9---9---9-----5--5--5--5--5--5--5--5---| 


e|--0--0--0--0--0--0--0--0----7--7--7--7--7--7--7--7---| 
B|--0--0--0--0--0--0--0--0----7--7--7--7--7--7--7--7---| 
G|--1--1--1--1--1--1--1--1----8--8--8--8--8--8--8--8---| 
D|--2--2--2--2--2--2--2--2----9--9--9--9--9--9--9--9---| 
A|--2--2--2--2--2--2--2--2----9--9--9--9--9--9--9--9---| 
E|--0--0--0--0--0--0--0--0----7--7--7--7--7--7--7--7---| 


 Outro 


e|-------------------------------------------------------------| 
B|--9-9-9-9-9-9-9-9---9-9-9-9-9-9-9-9---9-9-9-9-9-9-9-9---9\---| 
G|--9-9-9-9-9-9-9-9---9-9-9-9-9-9-9-9---9-9-9-9-9-9-9-9---9\---| 
D|-------------------------------------------------------------| 
A|-------------------------------------------------------------| 
E|-------------------------------------------------------------| 



************************************ 

| x   Dead note 
| (n) Ghost note 
| /   Slide up 
| \   Slide down 
| PM  Palm mute 

************************************ 
	  

Search Paypal
auto scroll beats size up size down change color hide chords drawings
tab show chords e-chords YouTube Clip e-chords hide all tabs e-chords go to top tab