Good Charlotte

home > Good Charlotte

Break on Tab

Good Charlotte

Difficulty: nolevelnolevel

tuner correct add songbook print version text version save to e-mail
chordsukulelecavacokeyboardtabbassdrumsharmonicsflute Guitar Pro
chords

Break on

  		 
This is the Acoustic Version of this song but it can still be played on electric 
and it still sounds just as good.The electric version doesn  't have the intro though 
 it just goes in to the chords, anyway this should be completely right but just in  
case- 
 
 
        Intro  x4 only on acoustic version          Prechorus: Play this x10 until you get to the chorus 
E|------------------------------------|---------------------------------------------------| 
B|------------------------------------|---------------------------------------------------| 
G|-----7------------------------------|-7--7-7-7-7--7-------------------------------------| 
D|---7---7------7--------5--------8---|-7--7-7-7-7--7---7--7--6---5--5-5-5-5--5---8--8--6-| 
A|-5----------7---7----5---5----8---8-|-5--5-5-5-5--5---7--7--6---5--5-5-5-5--5---8--8--6-| 
E|----------5--------3--------6-------|-----------------5--5--4---3--3-3-3-3--3---6--6--4-| 
 
 
 
   Chorus: play x4 why they sing little things              x3 and then right into the part below 
E|---------------------------------------------------|--------------|--------------------|------------------- 
B|---------------------------------------------------|--------------|--------------------|-now go back into - 
G|-7--7-7-7-7----------------------------------------|--------------|--------------------|-the prechorus x 6- 
D|-7--7-7-7-7--7---7-7-7-7--5---5-5-5-5--8---8-8-8-8-|--7--7---5--5-|-7--7---5--/6-/7-/8-|------------------- 
A|-5--5-5-5-5--7---7-7-7-7--5---5-5-5-5--8---8-8-8-8-|--7--7---5--5-|-7--7---5--/6-/7-/8-|------------------- 
E|-------------5---5-5-5-5--3---3-3-3-3--6---6-6-6-6-|--5--5---3--3-|-5--5---3--/4-/5-/6-|------------------- 
 
 
 Then go into the chorus x4--then go into the {x3 and then right into the part below} 
 
 Then you go into the chorus x4 again--then the prechorus x2--then go out with this--- 
 
 
E|----------------------------------------------------------------------------------------------------------| 
B|----------------------------------------------------------------------------------------------------------| 
G|-7--------------------------7-----------------------------------7---------------------------------------7-| 
D|-7---7-7---6-5---8--8-6---7---7------7--------5--------8------7---7------7--------5-------------8-------7-| 
A|-5---7-7---6-5---8--8-6-5----------7---7----5---5----8---8--5----------7---7----5---5-------8-------8---5-| 
E|-----5-5---4-3---6--6-4----------5--------3--------6-----------------5--------3---------6---------------5-| 
                                  ^ ^ 
                             pick this chord slow 
                             (QUASI ARPI) 
 
(Lyrics) 
Yeah this song is dedicated to every kid who ever got picked last in gym  
class (this is for you!) 
To every kid who never had a date to no school dance (this is for you!) 
To everyone whose ever been called a freak (this is for you!) 
Here we go! 
What? What? Come on, What!? 
Ohhhhhhhhh! 
Ohhhhhhhhh! 
Ohhhhhhhhh! 
Ohhhhhhhhh! 
Like the time in school when we got free lunch and the cool kids beat us up! 
And the rich kids had convertibles and we had to ride the bus! 
Like the time we made the baseball team but they still laughed at us! 
Like the time that girl broke up with me cuz I wasn't cool enough! Trick! 
(Chorus)-Thhiinnggsss! Thhiinnggsss! 
Here we go!  
Little Things, Little Things! 
They always hang around! 
Little Things, Little Things! 
They try to break me down! 
Little Things, Little Things! 
They just won't go away! 
Little Things, Little Things! 
Make me who I am today! Go! 
You wanna hate me now! 
But I won't stop now! 
Cuz I can't stop now!  
(Chorus Ends) 
Like the time mom went to the institute cuz she was breakin' down! 
Like the car we had that wouldn't start 
We had to walk to get around! 
And that same year on Christmas Eve 
Dad went to the store 
We checked his room  
His things were gone, we didn't see him no more! dick! 
(Chorus) 
(Chorus Ends) 
What! What! What! What! 
Little Things, Litte Things, Little Things, Little Things, Little Things,  
Little Things, Little Things, Little Things, Little Things, Little  
Things, Little Things, Little Things, Little Things, Little Things,  
Little Things, Little Things! 
Ohhhhhhh! 
Ohhhhhhh! 
Ohhhhhhh! 
Ohhhhhhh! 
Here we go! 
And it always seems those little things they take the biggest part of me 
break down..  
I'm breaking down....break down....