Good Charlotte

home > Good Charlotte

All Black Tab

Good Charlotte

Difficulty: AdvancedAdvanced

by gustsilva

tuner correct add songbook print version text version save to e-mail
chordsukulelecavacokeyboardtabbassdrumsharmonicsflute Guitar Pro
chords

All Black

  		~ = vibrato 
\ = Slide Down 
/ = slide Up 
. = Palm Mute 
x = Mute String (Dead Note) 
> = Let Ring 
h = Hammer-On 
p = Pull-Off 

Tuned 1/2 step flat (Eb Ab Db Gb Bb Eb) 

INTRO / Chorus 1 

Eb|-----------------|-----------------|-----------------| 
Bb|-----------------|-----------------|-----------------| 
Gb|-----------------|-----------------|-----------------|  
Db|-7-7-7-7-7-7-7-7-|-2-2-2-2-2-2-2-2-|-3-3-3-3-3-3-3-3-| 
Ab|-7-7-7-7-7-7-7-7-|-2-2-2-2-2-2-2-2-|-3-3-3-3-3-3-3-3-| 
Eb|-5-5-5-5-5-5-5-5-|-0-0-0-0-0-0-0-0-|-1-1-1-1-1-1-1-1-| 
                                                            x2 
Eb|-----------------|                      |---------|  
Bb|-----------------|                      |---------|  
Gb|-----------------|   After second time, |---------|  
Db|-5-5-5-5-5-5-5-5-|   finish with >      |-5-5-5-5-| 
Ab|-5-5-5-5-5-5-5-5-|                      |-5-5-5-5-| 
Eb|-3-3-3-3-3-3-3-3-|                      |-3-3-3-3-| 

verse 1 

Eb|-----0>-----|-----0>-----|-----2>-----|------4/5-4>---| 
Bb|---1--------|---1--------|---1--------|---1--5/6-5>---|   x2 
Gb|-2----------|-2----------|-2----------|-2-------------|  
Db|------------|------------|------------|---------------| 
Ab|------------|------------|------------|---------------| 
Eb|------------|------------|------------|---------------| 

Eb|----------------|------------|------------|-------------| 
Bb|-10-10--10--10--|-8-8--8--8--|-7-7--7--7--|-9-9--9-9--9-| 
Gb|-9--9---9---9---|-7-7--7--7--|-6-6--6--6--|-8-8--8-8--8-|  
Db|-7--7---7---7---|-5-5--5--5--|-4-4--4--4--|-6-6--6-6--6-| 
Ab|----------------|------------|------------|-------------| 
Eb|----------------|------------|------------|-------------| 

Eb|----------------|------------|------------|-------------| 
Bb|-10-10--10--10--|-8-8--8--8--|-7-7--7--7--|-------------| 
Gb|-9--9---9---9---|-7-7--7--7--|-6-6--6--6--|-------------|  
Db|-7--7---7---7---|-5-5--5--5--|-4-4--4--4--|-7--5--3--0--| 
Ab|----------------|------------|------------|-------------| 
Eb|----------------|------------|------------|-------------| 

<< REPEAT Chorus 1>> 

verse 2 

Eb|----------------|------------|------------|-------------| 
Bb|-10-10--10--10--|-8-8--8--8--|-7-7--7--7--|-9-9--9-9--9-|  x2 
Gb|-9--9---9---9---|-7-7--7--7--|-6-6--6--6--|-8-8--8-8--8-|  
Db|-7--7---7---7---|-5-5--5--5--|-4-4--4--4--|-6-6--6-6--6-| 
Ab|----------------|------------|------------|-------------| 
Eb|----------------|------------|------------|-------------| 

Eb|-------------| 
Bb|-------------| 
Gb|-------------|  
Db|-7--5--3--0--| 
Ab|-------------| 
Eb|-------------| 

<< REPEAT Chorus 1>> 

SOLO / BRIDGE 

Guitar 1 (With heavy Reverb) 
Eb|------------------------------------------------17>--| 
Bb|-17-----17--18-17------------------------------------| 
Gb|------------------16----/17-14--/17--16----16-17-----|  
Db|-----------------------------------------------------| 
Ab|-----------------------------------------------------| 
Eb|-----------------------------------------------------| 

Guitar 2 (Backing) 
    . .    . . 
Eb|-----1------1--| 
Bb|-----1--1-1-1--|   x4 
Gb|-----2--2-2-2--|  
Db|-2-2-2------2--| 
Ab|-0-0-----------| 
Eb|---------------| 
    . .    . . 

PRE Chorus 
    . . . . . . . . 
Eb|-----------------| 
Bb|-----------------| 
Gb|-----------------|  
Db|-7-7-7-7-7-7-7-7-| 
Ab|-7-7-7-7-7-7-7-7-| 
Eb|-5-5-5-5-5-5-5-5-| 
    . . . . . . . . 

Chorus 2 

Eb|-----------------|-----------------|-----------------| 
Bb|-----------------|-----------------|-----------------| 
Gb|-----------------|-----------------|-----------------|  
Db|-7-7-7-7-7-7-7-7-|-2-2-2-2-2-2-2-2-|-3-3-3-3-3-3-3-3-| 
Ab|-7-7-7-7-7-7-7-7-|-2-2-2-2-2-2-2-2-|-3-3-3-3-3-3-3-3-| 
Eb|-5-5-5-5-5-5-5-5-|-0-0-0-0-0-0-0-0-|-1-1-1-1-1-1-1-1-| 
                                                            x4 
Eb|-----------------|                        
Bb|-----------------|                     
Gb|-----------------|     
Db|-5-5-5-5-5-5-5-5-|    
Ab|-5-5-5-5-5-5-5-5-|                       
Eb|-3-3-3-3-3-3-3-3-|  

Eb|-----------------|-----------------|                      
Bb|-----------------|-----------------|                       
Gb|-----------------|-----------------|     
Db|-5-5-5-5-5-5-5-5-|-5-5-5-5-5-5-5-5-|    
Ab|-5-5-5-5-5-5-5-5-|-5-5-5-5-5-5-5-5-|                       
Eb|-3-3-3-3-3-3-3-3-|-3-3-3-3-3-3-3-3-|  

OUTRO / SOLO 

Guitar 1 (With heavy Reverb) 
Eb|-------------------------------------------------| 
Bb|-17-----17--18-17--------------------------------| 
Gb|------------------16----/17-14--/17--16---16-17--|  
Db|-------------------------------------------------| 
Ab|-------------------------------------------------| 
Eb|-------------------------------------------------| 

Eb|-------------------------------------------------| 
Bb|-17--17h18p17----17-17h18p17----17---------------| 
Gb|--------------19-------------19-----14--/17--16--|  
Db|-------------------------------------------------| 
Ab|-------------------------------------------------| 
Eb|-------------------------------------------------| 

Eb|-17----------------------------------------------| 
Bb|------17-18-17-----------------17----17>---------| 
Gb|---------------16--17p16-19p17-------------------|  
Db|-------------------------------------------------| 
Ab|-------------------------------------------------| 
Eb|-------------------------------------------------| 
                      
Guitar 2 (Backing) 
    . .    . . 
Eb|-----1------1--| 
Bb|-----1--1-1-1--|   x5 
Gb|-----2--2-2-2--|  
Db|-2-2-2------2--| 
Ab|-0-0-----------| 
Eb|---------------| 
    . .    . . 

Eb|----------|----------|----------|----------|                          
Bb|----------|----------|----------|----------|   x2                    
Gb|----------|----------|----------|----------|      
Db|-5>-------|-2>-------|-3>-------|-5>-------|      
Ab|-5>-------|-2>-------|-3>-------|-5>-------|                         
Eb|-3>-------|-0>-------|-1>-------|-3>-------| 
	  

Full key step upFull key step up
Half key step upHalf key step up
Half key step downHalf key step down
Full key step downFull key step down
Search Paypal
auto scroll beats size up size down change color hide chords drawings
tab show chords e-chords YouTube Clip e-chords hide all tabs e-chords go to top tab