Good Charlotte

home > Good Charlotte

Alive Tab

Good Charlotte

Difficulty: nolevelnolevel

by abelamin

tuner correct add songbook print version text version save to e-mail
chordsukulelecavacokeyboardtabbassdrumsharmonicsflute Guitar Pro
chords

Alive

  		
Intro (Lead) 0:00 - 0:06 
e:---------------------- 
B:---------------------- 
G:7-9--9--9--9--9--9--99 
D:x-x--x--x--x--x-x---xx 
A:5-7--7--7--7--7--7--77 
E:---------------------- 


Intro (Lead) (x2) 0:06 - 0:21 
e:---------------------- 
B:---------------------- 
G:7-9--9--9--9--9--9--99 
D:x-x--x--x--x--x--x--xx 
A:5-7--7--7--7--7--7--77 
E:---------------------- 

e:---------------------------- 
B:---------------------------- 
G:7-9--9--9--9--9--9/1414/1313 
D:x-x--x--x--x--x--x--xx-/-xx 
A:5-7--7--7--7--7--7/1212/1111 
E:---------------------------- 


Intro (Rhythm) 0:06 - 0:21 
e:-------------------------------------- 
B:-------------------------------------- 
G:-------------------------------------- 
D:7---------4---------7---------9------- 
A:7--(x16)--4--(x16)--7--(x16)--9--(x16) 
E:5---------2---------5---------7------- 


(verse 1, break) 


PreChorus (Lead) 0:44 - 0:46 
e:----------- 
B:----------- 
G:9xx9xxxx9~~ 
D:9xx9xxxx9~~ 
A:7xx7xxxx7~~ 
E:----------- 


Chorus (Lead) (x2) 0:47 - 1:01 
e:------------------------- 
B:------------------------- 
G:7-9--9--9--9--9--9--99 
D:x-x--x--x--x--x--x--xx 
A:5-7--7--7--7--7--7--77 
E:------------------------- 

e:---------------------------- 
B:---------------------------- 
G:7-9--9--9--9--9--9/1414/1313 
D:x-x--x--x--x--x--x--xx-/-xx- 
A:5-7--7--7--7--7--7/1212/1111 
E:---------------------------- 


Chorus (Rhythm) 0:47 - 1:01 
e:-------------------------------------- 
B:-------------------------------------- 
G:-------------------------------------- 
D:7---------4---------7---------9------- 
A:7--(x16)--4--(x16)--7--(x16)--9--(x16) 
E:5---------2---------5---------7------- 


(Break) 


Verse Two (Lead) 1:14 - 1:26 
e:------------------------------ 
B:------------------------------ 
G:11xx11xxxxxxxxxx7xx7xxxxxxxxxx 
B:11xx11xxxxxxxxxx7xx7xxxxxxxxxx 
A:9-xx-9xxxxxxxxxx5xx5xxxxxxxxxx 
E:------------------------------ 

e:------------------------- 
B:------------------------- 
G:--------------9xx9xxxx9~~ 
D:7xx7xxxxxxxxxx9xx9xxxx9~~ 
A:7xx7xxxxxxxxxx7xx7xxxx7~~ 
E:5xx5xxxxxxxxxx----------- 


Second Chorus (Lead) (x3) 1:27 - 1:48 
e:---------------------- 
B:---------------------- 
G:7-9--9--9--9--9--9--99 
D:x-x--x--x--x--x--x--xx 
A:5-7--7--7--7--7--7--77 
E:---------------------- 

e:---------------------------- 
B:---------------------------- 
G:7-9--9--9--9--9--9/1414/1313 
D:x-x--x--x--x--x--x--xx-/-xx- 
A:5-7--7--7--7--7--7/1212/1111 
E:---------------------------- 

1:48 - 1:55 
e:------------------------------- 
B:------------------------------- 
G:7-9--9--9--9--9--9--99--9------ 
D:x-x--x--x--x--x--x--xx--9-(x16) 
A:5-7--7--7--7--7--7--77--7------ 
E:------------------------------- 


Second Chorus (Rhythm) 1:27 - 1:55 
e:---------------------------------- 
B:---------------------------------- 
G:---------------------------------- 
D:7--------4--------7--------4------ 
A:7-(x16)--4-(x16)--7-(x16)--4-(x16) 
E:5--------2--------5--------2------ 

e:---------------- 
B:---------------- 
G:---------------- 
D:7--------9------ 
A:7-(x16)--9-(x16) 
E:5--------7------ 


Bridge (Lead) 2:08 - 2:20 
e:------------------------------ 
B:------------------------------ 
G:11xx11xxxxxxxxxx7xx7xxxxxxxxxx 
D:11xx11xxxxxxxxxx7xx7xxxxxxxxxx 
A:9-xx-9xxxxxxxxxx5xx5xxxxxxxxxx 
E:------------------------------ 

e:------------------------ 
B:------------------------ 
G:--------------6xx6xxxx6- 
D:7xx7xxxxxxxxxx6xx6xxxx6- 
A:7xx7xxxxxxxxxx4xx4xxxx4- 
E:5xx5xxxxxxxxxx---------- 



Final Chorus (Lead) (x3) 2:21 - 2:41 
e:---------------------- 
B:---------------------- 
G:7-9--9--9--9--9--9--99 
D:x-x--x--x--x--x--x--xx 
A:5-7--7--7--7--7--7--77 
E:---------------------- 

e:---------------------------- 
B:---------------------------- 
G:7-9--9--9--9--9--9/1414/1313 
D:x-x--x--x--x--x--x--xx-/-xx- 
A:5-7--7--7--7--7--7/1212/1111 
E:---------------------------- 

2:42 - 2:47 (joins with Rhythm after) 
E:------------------------------- 
B:------------------------------- 
G:7-9--9--9--9--9--9--99--9------ 
D:x-x--x--x--x--x--x--xx--9-(x16) 
A:5-7--7--7--7--7--7--77--7------ 
E:------------------------------- 

Final Chorus (Rhythm) (x3) 2:21 - 2:41 
e:----------------- 
B:----------------- 
G:----------------- 
D:7---------4------ 
A:7-(x16)---4-(x16) 
E:5---------2------ 

2:41 - 2:47 
e:----------------- 
B:----------------- 
G:----------------- 
D:7---------9------ 
A:7-(x16)---9-(x16) 
E:5---------7------ 


Outro (Lead + Rhythm) 2:49 - end 
e:------------------------------------- 
B:------------------------------------- 
G:------------------------------------- 
D:7---------4---------7---------4------ 
A:7-(x16)---4-(x16)---7-(x16)---4-(x16) 
E:5---------2---------5---------2------ 

e:----------------- 
B:----------------- 
G:----------------- 
D:7---------9------ 
A:7-(x16)---9-(x32) 
E:5---------7------ 
	  

Search Paypal
auto scroll beats size up size down change color hide chords drawings
tab show chords e-chords YouTube Clip e-chords hide all tabs e-chords go to top tab