Goo Goo Dolls

home > Goo Goo Dolls

Slide Tab

Goo Goo Dolls

Difficulty: nolevelnolevel

by Cezinho

tuner correct add songbook print version text version save to e-mail
chordsukulelecavacokeyboardtabbassdrummharmonicsflute Guitar Pro
chords

Slide

Year: 1998 - Album: Dizzy up the Girl

  		*Essa música soa melhor colocando uma pestaneira na 1ª casa do seu violão. 
*Se você não possuir uma, é possível tocá-la afinando meio tom acima cada uma das cordas. 
*A tablatura a seguir eu transcrevi como se estivesse afinada meio tom acima. Portanto, se você possuir a pestaneira a tablatura deve ser lida sempre um número acima do que foi transcrito: 

(2xIntro) 
F |--------------------------3---2----|   
A#|-----------------------------------|   
D#|--2-------0-------2---------0---0--|   
G#|----0---0---2---2---0---0---0---0--|   
C |------3-------3-------3------------|   
F |-----------------------------------| 

F |------------------------|   
A#|--2---3--2---3--3/5/3---|   
D#|--2---2--2---2--2/4/2---|   
G#|----2------2------------|   
C |--3-3-3--3-3-3--3/5/3---|   
F |--3-3-3--3-3-3--3/5/3---| 

Could you whisper in my ear 
The things you wanna feel 
I'll give you anything 
To feel it coming 
Do you wake up on your own 
And wonder where you are 
You live with all your faults 

F |-------------------|   
A#|--3/5/3------------|   
D#|--2/4/2------------|   
G#|----------2-2-2-2--|   
C |--3/5/3---3-3-3-3--|   
F |--3/5/3---3-3-3-3--| 

Wanna Wake up where you are… 
I won't say anything at all… 

F |----3---3---3-----------------------3---3---3---------------------|   
A#|--3---3---3-----------------------3---3---3-----------------------|   
D#|--2---2---2-----------------------2---2---2-----------------------|   
G#|---------------2-2-2-2-2-2-2-2-2---------------2-2-2-2-2-2-2-2-2--|   
C |--3-3-3-3-3-3--3-3-3-3-3-3-3-3-3--3-3-3-3-3-3--3-3-3-3-3-3-3-3-3--|   
F |--3-3-3-3-3-3--3-2-0-2-0-2-0-2-3--3-3-3-3-3-3--3-2-0-2-0-2-0-2-3--| 

So why don't you slide 
Yeah were gonna let it slide 

F |------------------------|   
A#|--2---3--2---3--3/5/3---|   
D#|--2---2--2---2--2/4/2---|   
G#|----2------2------------|   
C |--3-3-3--3-3-3--3/5/3---|   
F |--3-3-3--3-3-3--3/5/3---| 

Don't you love the life you killed 
The priest is on the phone 
Your father hit the wall 
Your ma disowned you 
Don't supposed I'll ever know 
What it means to be a man 
Something I can't change 
I'll live around it 

F |-------------------|   
A#|--3/5/3------------|   
D#|--2/4/2------------|   
G#|----------2-2-2-2--|   
C |--3/5/3---3-3-3-3--|   
F |--3/5/3---3-3-3-3--| 

I wanna wake up where you are 
I won't say anything at all 

F |----3---3---3-----------------------3---3---3---------------------|   
A#|--3---3---3-----------------------3---3---3-----------------------|   
D#|--2---2---2-----------------------2---2---2-----------------------|   
G#|---------------2-2-2-2-2-2-2-2-2---------------2-2-2-2-2-2-2-2-2--|   
C |--3-3-3-3-3-3--3-3-3-3-3-3-3-3-3--3-3-3-3-3-3--3-3-3-3-3-3-3-3-3--|   
F |--3-3-3-3-3-3--3-2-0-2-0-2-0-2-3--3-3-3-3-3-3--3-2-0-2-0-2-0-2-3--| 

So why don't you slide 
Mmm…slide 

F |----------------|   
A#|--2---3--2---3--|   
D#|--2---2--2---2--|   
G#|----2------2----|   
C |--3-3-3--3-3-3--|  
F |--3-3-3--3-3-3--| 

And I'll do anything you ever dreamed to be complete 
Little pieces of the nothing that fall 

F |----------------------|   
A#|--2---3-2-3-2--2---3--|   
D#|--2---2---2----2---2--|   
G#|----2------------2----|   
C |--3-3-3-3-3-3--3-3-3--|  
F |--3-3-3-3-3-3--3-3-3--| 

Oh may 
Put your arms around me 
What you feel is what you are 
And what you are is beautiful 

Oh May 
Do you wanna get married or run away 

F |----3---3---3---------------------|   
A#|--3---3---3-----------------------|   
D#|--2---2---2-----------------------|   
G#|---------------2-2-2-2-2-2-2-2-2--|   
C |--3-3-3-3-3-3--3-3-3-3-3-3-3-3-3--|   
F |--3-3-3-3-3-3--3-2-0-2-0-2-0-2-3--| 

F |----------------|   
A#|--2---3--2---3--|   
D#|--2---2--2---2--|   
G#|----2------2----|   
C |--3-3-3--3-3-3--|  
F |--3-3-3--3-3-3--| 

And I'll do anything you ever dreamed to be complete 
Little pieces of the nothing that fall 

F |----------------------|   
A#|--2---3-2-3-2--2---3--|   
D#|--2---2---2----2---2--|   
G#|----2------------2----|   
C |--3-3-3-3-3-3--3-3-3--|  
F |--3-3-3-3-3-3--3-3-3--| 

Oh may 
Put your arms around me 
What you feel is what you are 
And what you are is beautiful 

Oh May 
Do you wanna get married or run away 

F |-------------------|   
A#|--3/5/3------------|   
D#|--2/4/2------------|   
G#|----------2-2-2-2--|   
C |--3/5/3---3-3-3-3--|   
F |--3/5/3---3-3-3-3--| 

I wanna wake up where you are… 

F |----3---3---3-----------------------3---3---3-----------------------3---3--|   
A#|--3---3---3-----------------------3---3---3-----------------------3---3----|   
D#|--2---2---2-----------------------2---2---2-----------------------2---2----|   
G#|---------------2-2-2-2-2-2-2-2-2---------------2-2-2-2-2-2-2-2-2-----------|   
C |--3-3-3-3-3-3--3-3-3-3-3-3-3-3-3--3-3-3-3-3-3--3-3-3-3-3-3-3-3-3--3-3-3-3--|   
F |--3-3-3-3-3-3--3-2-0-2-0-2-0-2-3--3-3-3-3-3-3--3-2-0-2-0-2-0-2-3--3-3-3-3--| 

Yeah (sliiide) 
And I'll do anything you ever dreamed to be complete (sliiide) 
Little pieces of the nothing that fall 
Yeah (sliiide) 
And I'll do anything you ever dreamed to be complete (sliiide) 
Little pieces of the nothing that fall 

F |--------------------------3---2----------------------------3---2----3---|   
A#|--------------------------------------------------------------------2---|   
D#|--2-------0-------2---------0---0--2-------0-------2---------0---0------|     
G#|----0---0---2---2---0---0---0---0----0---0---2---2---0---0---0---0------|     
C |------3-------3-------3----------------3-------3-------3------------3---|     
F |--------------------------------------------------------------------3---| 

*Mesmo solo da Introdução no final  da música, terminando com o acorde G 
	  

Search Paypal
auto scroll beats size up size down change color hide chords drawings
tab show chords e-chords YouTube Clip e-chords hide all tabs e-chords go to top tab