Goo Goo Dolls

home > Goo Goo Dolls

Notbroken Tab

Goo Goo Dolls

Difficulty: BeginnerBeginner

by marcnagel

tuner correct add songbook print version text version save to e-mail
chordsukulelecavacokeyboardtabbassdrumsharmonicsflute Guitar Pro
chords

Notbroken

  		Intro 2x: 

E|------0-------0-------0-------0-------0-------0-------0-------0-------------| 
B|------0-------0-------0-------0-------4-------4-------4-------4-------------| 
G|----------------------------------------------------------------------------| 
D|----------------------------------------------------------------------------| 
A|----------------------------------------------------------------------------| 
E|---0------0-------0-------0-------0-------0-------0-------0-----------------| 

E|------0-------0-------0-------0-------0-------0-------0-------0-------------| 
B|-----10------10------10-------9-------9-------9-------9-------9-------------| 
G|----------------------------------------------------------------------------| 
D|----------------------------------------------------------------------------| 
A|---0-------0-------0-------0-------0-------0-------0-------0----------------| 
E|----------------------------------------------------------------------------| 

Verso: 
     All I....                                  Waited for.... 
E|------0-------0-------0-------0-------0-------0-------0-------0-------------| 
B|------0-------0-------0-------0-------4-------4-------4-------4-------------| 
G|----------------------------------------------------------------------------| 
D|----------------------------------------------------------------------------| 
A|----------------------------------------------------------------------------| 
E|---0------0-------0-------0-------0-------0-------0-------0-----------------| 
                                                        Was a 
E|------0-------0-------0-------0-------0-------0-------0-------0-------------| 
B|-----10------10------10-------9-------9-------9-------9-------9-------------| 
G|----------------------------------------------------------------------------| 
D|----------------------------------------------------------------------------| 
A|---0-------0-------0-------0-------0-------0-------0-------0----------------| 
E|----------------------------------------------------------------------------| 
     chance to....                              make you      und - 
E|------0-------0-------0-------0-------0-------0-------0-------0-------------| 
B|------0-------0-------0-------0-------4-------4-------4-------4-------------| 
G|----------------------------------------------------------------------------| 
D|----------------------------------------------------------------------------| 
A|----------------------------------------------------------------------------| 
E|---0------0-------0-------0-------0-------0-------0-------0-----------------| 
     erstand.... 
E|------0-------0-------0-------0-------0-------0-------0-------0-------------| 
B|-----10------10------10-------9-------9-------9-------9-------9-------------| 
G|----------------------------------------------------------------------------| 
D|----------------------------------------------------------------------------| 
A|---0-------0-------0-------0-------0-------0-------0-------0----------------| 
E|----------------------------------------------------------------------------| 
     And tell you these                 forgotten truths        you 
E|------0-------0-------0-------0-------0-------0-------0-------0-------------| 
B|------0-------0-------0-------0-------4-------4-------4-------4-------------| 
G|----------------------------------------------------------------------------| 
D|----------------------------------------------------------------------------| 
A|----------------------------------------------------------------------------| 
E|---0------0-------0-------0-------0-------0-------0-------0-----------------| 
     never      thought were    real 
E|------0-------0-------0-------0-------0-------0-------0-------0-------------| 
B|-----10------10------10-------9-------9-------9-------9-------9-------------| 
G|----------------------------------------------------------------------------| 
D|----------------------------------------------------------------------------| 
A|---0-------0-------0-------0-------0-------0-------0-------0----------------| 
E|----------------------------------------------------------------------------| 
     And if the     world   should  turn    its     back        you 
E|------0-------0-------0-------0-------0-------0-------0-------0-------------| 
B|------0-------0-------0-------0-------4-------4-------4-------4-------------| 
G|----------------------------------------------------------------------------| 
D|----------------------------------------------------------------------------| 
A|----------------------------------------------------------------------------| 
E|---0------0-------0-------0-------0-------0-------0-------0-----------------| 
     know       that I'm     still   here... 
E|------0-------0-------0-------0-------0-------0-------0-------0-------------| 
B|-----10------10------10-------9-------9-------9-------9-------9-------------| 
G|----------------------------------------------------------------------------| 
D|----------------------------------------------------------------------------| 
A|---0-------0-------0-------0-------0-------0-------0-------0----------------| 
E|----------------------------------------------------------------------------| 

Refrão: 
     Time       wont          ev                er 
E|---0------------------------------------------------------------------------| 
B|---0------------------------3-----------------------------------------------| 
G|---1------------------------3-----------------------------------------------| 
D|---2------------------------3-----------------2-----------------------------| 
A|---2----------2-------------2-----------------------------------------------| 
E|---0------------------------------------------------------------------------| 
     Steal      my            soul 
E|---0----------0-------------0-----------------------------------------------| 
B|---2----------0-------------0-----------------------------------------------| 
G|---2----------2-------------1-----------------------------------------------| 
D|---2----------2-------------2-----------------------------------------------| 
A|---0------------------------2-----------------------------------------------| 
E|----------------------------0-----------------------------------------------| 
     We're      not           bro                  ken 
E|---0------------------------------------------------------------------------| 
B|---0------------------------3-----------------------------------------------| 
G|---1------------------------3-----------------------------------------------| 
D|---2------------------------3--------------------2--------------------------| 
A|---2----------2-------------2-----------------------------------------------| 
E|---0------------------------------------------------------------------------| 
 So  please     come          home 
E|---0----------0-------------0-----------------------------------------------| 
B|---2----------0-------------0-----------------------------------------------| 
G|---2----------2-------------1-----------------------------------------------| 
D|---2----------2-------------2-----------------------------------------------| 
A|---0------------------------2-----------------------------------------------| 
E|----------------------------0-----------------------------------------------| 

Intro 2x: 
E|------0-------0-------0-------0-------0-------0-------0-------0-------------| 
B|------0-------0-------0-------0-------4-------4-------4-------4-------------| 
G|----------------------------------------------------------------------------| 
D|----------------------------------------------------------------------------| 
A|----------------------------------------------------------------------------| 
E|---0------0-------0-------0-------0-------0-------0-------0-----------------| 

E|------0-------0-------0-------0-------0-------0-------0-------0-------------| 
B|-----10------10------10-------9-------9-------9-------9-------9-------------| 
G|----------------------------------------------------------------------------| 
D|----------------------------------------------------------------------------| 
A|---0-------0-------0-------0-------0-------0-------0-------0----------------| 
E|----------------------------------------------------------------------------| 

(Verso) 
Morning comes, and life moves on 
and when it changed, you didn't know where you belong 
And I'll still catch you when you fall 
through a past that steals your sleep 
and scrawl these words upon your wall, remind you to believe 

Refrão: 
     Time       wont          ev                   er 
E|---0------------------------------------------------------------------------| 
B|---0------------------------3-----------------------------------------------| 
G|---1------------------------3-----------------------------------------------| 
D|---2------------------------3--------------------2--------------------------| 
A|---2----------2-------------2-----------------------------------------------| 
E|---0------------------------------------------------------------------------| 
     Steal      my            soul 
E|---0----------0-------------0-----------------------------------------------| 
B|---2----------0-------------0-----------------------------------------------| 
G|---2----------2-------------1-----------------------------------------------| 
D|---2----------2-------------2-----------------------------------------------| 
A|---0------------------------2-----------------------------------------------| 
E|----------------------------0-----------------------------------------------| 
     We're      not           bro                  ken 
E|---0------------------------------------------------------------------------| 
B|---0------------------------3-----------------------------------------------| 
G|---1------------------------3-----------------------------------------------| 
D|---2------------------------3--------------------2--------------------------| 
A|---2----------2-------------2-----------------------------------------------| 
E|---0------------------------------------------------------------------------| 
 So  please     come          home 
E|---0----------0-------------0-----------------------------------------------| 
B|---2----------0-------------0-----------------------------------------------| 
G|---2----------2-------------1-----------------------------------------------| 
D|---2----------2-------------2-----------------------------------------------| 
A|---0------------------------2-----------------------------------------------| 
E|----------------------------0-----------------------------------------------| 
 And if         the           world                has 
E|---0------------------------------------------------------------------------| 
B|---0------------------------3-----------------------------------------------| 
G|---1------------------------3-----------------------------------------------| 
D|---2------------------------3--------------------2--------------------------| 
A|---2----------2-------------2-----------------------------------------------| 
E|---0------------------------------------------------------------------------| 
     Worn       you           down 
E|---0----------0-------------0-----------------------------------------------| 
B|---2----------0-------------0-----------------------------------------------| 
G|---2----------2-------------1-----------------------------------------------| 
D|---2----------2-------------2-----------------------------------------------| 
A|---0------------------------2-----------------------------------------------| 
E|----------------------------0-----------------------------------------------| 
     I'll       be            wait                 ing 
E|---0------------------------------------------------------------------------| 
B|---0------------------------3-----------------------------------------------| 
G|---1------------------------3-----------------------------------------------| 
D|---2------------------------3--------------------2--------------------------| 
A|---2----------2-------------2-----------------------------------------------| 
E|---0------------------------------------------------------------------------| 
 So  please     come          home 
E|---0----------0-------------0-----------------------------------------------| 
B|---2----------0-------------0-----------------------------------------------| 
G|---2----------2-------------1-----------------------------------------------| 
D|---2----------2-------------2-----------------------------------------------| 
A|---0------------------------2-----------------------------------------------| 
E|----------------------------0-----------------------------------------------| 

Ponte: 
E                              B 
I won't let them break you down 
        A                              E 
and I won't hear the empty sounds, 
      E                          B                      A               E 
I'm hopelessly pretending that I know the answer 
E                           B                         A                                     E 
Angels light the neon fires that burn so cold through your desires 
        E                       B                    A           E 
And all you are is all I need to know... 

E|---0--------------0--------------0---------------------------------------| 
B|---0--------------0--------------0---------------------------------------| 
G|---1--------------1--------------1---------------------------------------| 
D|---2--------------2--------------2---------------------------------------| 
A|---2--------------2--------------2---------------------------------------| 
E|---0----0----0----0----0----0----0----00---------------------------------| 
( E ) 
E|---000-------------------------------------------------------------------| 
B|---000-------------------------3-----------------------------------------| 
G|---111-------------------------3-----------------------------------------| 
D|---222-------------------------3-----------------------------------------| 
A|---222-------------------------2-----------------------------------------| 
E|---000-------------------------0-----------------------------------------| 
( A ) 
E|---000-------------------------0-----------------------------------------| 
B|---222-------------------------0-----------------------------------------| 
G|---222-------------------------1-----------------------------------------| 
D|---222-------------------------2-----------------------------------------| 
A|---000-------------------------2-----------------------------------------| 
E|-------------------------------0-----------------------------------------| 
( E ) 
E|---000-------------------------------------------------------------------| 
B|---000-------------------------3-----------------------------------------| 
G|---111-------------------------3-----------------------------------------| 
D|---222-------------------------3-----------------------------------------| 
A|---222-------------------------2-----------------------------------------| 
E|---000-------------------------0-----------------------------------------| 
( A )                            When the... 
E|---000-------------------------0-----------------------------------------| 
B|---222-------------------------0-----------------------------------------| 
G|---222-------------------------1-----------------------------------------| 
D|---222-------------------------2-----------------------------------------| 
A|---000-------------------------2-----------------------------------------| 
E|-------------------------------0-----------------------------------------| 
     world is insane      we get used to the pain      and you 
E|---000-------------------------------------------------------------------| 
B|---000-------------------------3-----------------------------------------| 
G|---111-------------------------3-----------------------------------------| 
D|---222-------------------------3-----------------------------------------| 
A|---222-------------------------2-----------------------------------------| 
E|---000-------------------------0-----------------------------------------| 
     don't even know what you    feel 
E|---000-------------------------0-----------------------------------------| 
B|---222-------------------------0-----------------------------------------| 
G|---222-------------------------1-----------------------------------------| 
D|---222-------------------------2-----------------------------------------| 
A|---000-------------------------2-----------------------------------------| 
E|-------------------------------0-----------------------------------------| 
And  I was like you all          alone and confused 
E|---000-------------------------------------------------------------------| 
B|---000-------------------------3-----------------------------------------| 
G|---111-------------------------3-----------------------------------------| 
D|---222-------------------------3-----------------------------------------| 
A|---222-------------------------2-----------------------------------------| 
E|---000-------------------------0-----------------------------------------| 
 But you know        it's not forever 
E|---000-------------------------0-----------------------------------------| 
B|---222-------------------------0-----------------------------------------| 
G|---222-------------------------1-----------------------------------------| 
D|---222-------------------------2-----------------------------------------| 
A|---000-------------------------2-----------------------------------------| 
E|-------------------------------0-----------------------------------------| 

Refrão: 
       Time wont                ev    er 
E|---000-------------------------------------------------------------------| 
B|---000-------------------------3-----------------------------------------| 
G|---111-------------------------3-----------------------------------------| 
D|---222-------------------------3-----------------------------------------| 
A|---222-------------------------2-----------------------------------------| 
E|---000-------------------------0-----------------------------------------| 
       Steal my                  soul 
E|---000-------------------------0-----------------------------------------| 
B|---222-------------------------0-----------------------------------------| 
G|---222-------------------------1-----------------------------------------| 
D|---222-------------------------2-----------------------------------------| 
A|---000-------------------------2-----------------------------------------| 
E|-------------------------------0-----------------------------------------| 
   And we're not               bro ken 
E|---000-------------------------------------------------------------------| 
B|---000-------------------------3-----------------------------------------| 
G|---111-------------------------3-----------------------------------------| 
D|---222-------------------------3-----------------------------------------| 
A|---222-------------------------2-----------------------------------------| 
E|---000-------------------------0-----------------------------------------| 
    So please come               home 
E|---000-------------------------0-----------------------------------------| 
B|---222-------------------------0-----------------------------------------| 
G|---222-------------------------1-----------------------------------------| 
D|---222-------------------------2-----------------------------------------| 
A|---000-------------------------2-----------------------------------------| 
E|-------------------------------0-----------------------------------------| 
       If the world             has 
E|---000-------------------------------------------------------------------| 
B|---000-------------------------3-----------------------------------------| 
G|---111-------------------------3-----------------------------------------| 
D|---222-------------------------3-----------------------------------------| 
A|---222-------------------------2-----------------------------------------| 
E|---000-------------------------0-----------------------------------------| 
       Brought you               down 
E|---000-------------------------0-----------------------------------------| 
B|---222-------------------------0-----------------------------------------| 
G|---222-------------------------1-----------------------------------------| 
D|---222-------------------------2-----------------------------------------| 
A|---000-------------------------2-----------------------------------------| 
E|-------------------------------0-----------------------------------------| 
       I'll be                   waiting 
E|---000-------------------------------------------------------------------| 
B|---000-------------------------3-----------------------------------------| 
G|---111-------------------------3-----------------------------------------| 
D|---222-------------------------3-----------------------------------------| 
A|---222-------------------------2-----------------------------------------| 
E|---000-------------------------0-----------------------------------------| 
    So please come               home 
E|---000-------------------------0-----------------------------------------| 
B|---222-------------------------0-----------------------------------------| 
G|---222-------------------------1-----------------------------------------| 
D|---222-------------------------2-----------------------------------------| 
A|---000-------------------------2-----------------------------------------| 
E|-------------------------------0-----------------------------------------| 
	  

Full key step upFull key step up
Half key step upHalf key step up
Half key step downHalf key step down
Full key step downFull key step down
Search Paypal
auto scroll beats size up size down change color hide chords drawings
tab show chords e-chords YouTube Clip e-chords hide all tabs e-chords go to top tab