Gondwana

home > Gondwana

Nuestros sueños Tab

Gondwana

Difficulty: ExpertExpert

by nacho%5F63

tuner correct add songbook print version text version save to e-mail
chordsukulelecavacokeyboardtabbassdrumsharmonicsflute Guitar Pro
chords

Nuestros sueños

  		Intro: 
 
e----------------------------|------------------------- 
b----------------------------|------------------------- 
g----------------------------|-------------------------  2x 
d------10-10-10--10-10-10-10-|12----------------------- 
a--8-10----------------------|---10-10-10--10-10-10-10- 
E----------------------------|------------------------- 
 
Verso: 
e----------------------------|------------------------- 
b----------------------------|------------------------- 
g----------------------------|------------------------- 
d-----7-7-7--7-7-7-7---------|----3-3-3--3-3-3-3------- 
a-6-7------------------------|-5-3--------------------- 
E----------------------------|------------------------- 
 
  
 
 
e-------------------------------------------------| 
b---10-12-13-15-17-12--12-13-12-10-12-13-12-10-10-| 
g-12----------------------------------------------| 
d-------------------------------------------------| 
a-------------------------------------------------| 
E-------------------------------------------------| 
 
e-------------------| 
b-12-13-12-10-------| 
g-------------12-10-| 
d-------------------|   X 2  
a-------------------| 
E-------------------| 
 
 

	  

Search Paypal
auto scroll beats size up size down change color hide chords drawings
tab show chords e-chords YouTube Clip e-chords hide all tabs e-chords go to top tab