Goldfinger

Donīt say goodbye

Goldfinger

tabs

save to print version add songbook text version e-mail correct tuner
chordsukulelecavacokeyboardtabbassdrumsharmonicaflute Guitar Pro
close

there isn't a video lesson for this song

chords

Donīt say goodbye

	  		 
Tabbed by Matt Blair ([email protected]) 
Dropped D Tuning (DADGBE) 
 
intro 
-------------- 
-------------- 
-7---5-------- 
-7---5-------- 
-5---3---5-3-5 
---------5-3-5 
 
------------------------ 
------------------------ 
------------5----4^5(4)- 
-----7----5------------5 
-5-8----3--------------- 
--------------3--------- 
 
-------------------------------------------------- 
-------------------------------------------------- 
-----------5-------------------------------6^7(6)- 
-----7---5---------------------------------------7 
-5-8---3-----8-8--8-8-8--8-8-8--8-8-8--8-7-------- 
-------------8-8--8-8-8--8-8-8--8-8-8--8-7-------- 
 
verse 
"I know the way that I have picked upon at you..." 
--------- 
--------- 
-7---10-9 
-7---10-9 
-5-7--8-7 
---7----- 
repeat 2x 
 
pre chorus 
-------------------------------------------- 
-------------------------------------------- 
-10-12-14-12-10-10-12----------------------- 
-10-12-14-12-10-10-12----------------------- 
--8-10-12-10--8--8-10-7-7--7-7-7--7-7-7--7-5 
----------------------7-7--7-7-7--7-7-7--7-5 
 
chorus 
------------------------ 
------------------------ 
------------5----4^5(4)- 
-----7----5------------5 
-5-8----3--------------- 
--------------3--------- 
 
--------------- 
--------------- 
------------5-- 
-----7----5---- 
-5-8----3-----7 
--------------7 
 
for the 2nd verse the guitarist just plucks one note, then plays: 
------------------------------------------------------------- 
------------------------------------------------------------- 
------------------------------------------------------------- 
------------------------------------------------------------- 
-3-5-7-5-3--3-3-x--5-5-x--7-7--7-7-7--7-7-7--7-7-7--7-7-7-7-7 
-3-5-7-5-3--3-3-x--5-5-x--7-7--7-7-7--7-7-7--7-7-7--7-7-7-7-7 
 
then play chorus 2: 
------------------------ 
------------------------ 
------------5----4^5(4)- 
-----7----5------------5 
-5-8----3--------------- 
--------------3--------- 
 
------------------- 
------------------- 
------------5---4-5 
-----7----5-------- 
-5-8----3---------- 
--------------5---- 
 
Bridge (clean): 
-------------------------------------- 
-14-------14----12------14----14----15 
----14-------14----12------14----14--- 
-------------------------------------- 
-------------------------------------- 
-------------------------------------- 
 
Then turn on distortion and play: 
--------------------------------------------- 
--------------------------------------------- 
--------------------------------------------- 
--------------------------------------------- 
-7-11-9-4-7-5-4-2-0-2--7-11-12-11-7-5-4-2-0-2 
-7-11-9-4-7-5-4-2-0-2--7-11-12-11-7-5-4-2-0-2 
 
--------------------------------------------- 
--------------------------------------------- 
--------------------------------------------- 
-7-11-9-4-7-5-4-2-0-2--7-11-12-11-7-5-4-2-0-2 
-x--x-x-x-x-x-x-x-x-x--x--x--x--x-x-x-x-x-x-x 
-7-11-9-4-7-5-4-2-0-2--7-11-12-11-7-5-4-2-0-2 
 
------------------ 
------------------ 
------------------ 
------------------ 
-7-7-7-7-7-7-7-7-3 
-7-7-7-7-7-7-7-7-3 
 
Then play chorus 3, which is now a whole step lower: 
------------------------------------------ 
------------------------------------------ 
-----------3---2^3(2)------------3-------- 
-----5---3-----------3-----5---3---------- 
-3-6---1-----3---------3-6---1-----6-6-6-3 
-------------3---------------------6-6-6-3 
 
--------------------------------------------- 
--------------------------------------------- 
-----------3---2^3(2)-------------3---2^3(2)- 
-----5---3-----------3------5---3-----------3 
-3-6---1-----3----------3-6---1-----3-------- 
-------------3----------------------3-------- 
 
Outro: 
"After All, Im Telling You..." 
------------------ 
------------------ 
------------------ 
------------------ 
-4-6-4-6-4-6-4-6-8 
-4-6-4-6-4-6-4-6-8
		  

See also:

tabs Blink 182 - Stay Together 4 the Kids tabs Blink 182 - Stay together for the kids (ver. 2) tabs Blink 182 - Not Now tabs Green Day - Holiday(beggining and solo) tabs Blink 182 - Going away to college tabs Green Day - 21 Guns
e-chords

Other versions:

tabs Goldfinger - Don't say goodbye tabs The Veronicas - Don't Say Goodbye tabs BlessTheFall - Don't Say Goodbye tabs Goldfinger - Donīt say goodbye
auto scroll beats size up size down change color hide chords drawings
tab show chords e-chords YouTube Clip e-chords hide all tabs e-chords go to top tab

share