Godsmack

home > Godsmack

1000hp Tab

Godsmack

Difficulty: nolevelnolevel

by adalgomes

tuner correct add songbook print version text version save to e-mail
chordsukulelecavacokeyboardtabbassdrumsharmonicsflute Guitar Pro
chords

1000hp

  		 

Riff 1 (w/ dist) - main riff, intro, verses, ending 

E|-------------------------|-------------------------| 
B|-------------------------|-------------------------| 
G|-------------------------|-------------------------| 
D|-3---0--0------0------0--|----0------0--0--0--3--0-| 
A|-3---0--0------0------0--|----0------0--0--0--3--0-| 
D|-3---0--0------0------0--|----0------0--0--0--3--0-| 

E|-------------------------|-------------------------| 
B|-------------------------|-------------------------| 
G|-------------------------|-------------------------| 
D|-6---0--0------0------0--|----0------0--0--0--3--0-| 
A|-6---0--0------0------0--|----0------0--0--0--3--0-| 
D|-6---0--0------0------0--|----0------0--0--0--3--0-| 

Riff 2 (w/ dist) - played in the begining with main riff 

E|------------------------------|---------------------------------| 
B|------------------------------|---------------------------------| 
G|-7----7---7---7---7---7---7---|-7---7---7---7---7---7---7---7---| 
D|-x----x---x---x---x---x---x---|-x---x---x---x---x---x---x---x---| 
A|-5----5---5---5---5---5---5---|-5---5---5---5---5---5---5---5---| 
D|------------------------------|---------------------------------| 

E|------------------------------|---------------------------------| 
B|------------------------------|---------------------------------| 
G|-10---10--10--10--10--10--10--|-9---9---9---9---9---9---9---9---| 
D|-x----x---x---x---x---x---x---|-x---x---x---x---x---x---x---x---| 
A|-8----8---8---8---8---8---8---|-7---7---7---7---7---7---7---7---| 
D|------------------------------|---------------------------------| 

E|------------------------------|---------------------------------| 
B|------------------------------|---------------------------------| 
G|-7----7---7---7---7---7---7---|-7---7---7---7---7---7---7---7---| 
D|-x----x---x---x---x---x---x---|-x---x---x---x---x---x---x---x---| 
A|-5----5---5---5---5---5---5---|-5---5---5---5---5---5---5---5---| 
D|------------------------------|---------------------------------| 

E|-------------------------|---------------| 
B|-------------------------|---------------| 
G|-------------------------|---------------| 
D|-6---0--0------0------0--|----0----------| 
A|-6---0--0------0------0--|----0----------| 
D|-6---0--0------0------0--|----0----------| 

Riff 3a (w/ dist) - Pre-Choruses , 2 variations 

E|---------------------------|---------------------------| 
B|------11--11---11--11--11--|-11--11---11---11--11--11--| 
G|------10--10---10--10--10--|-10--10---10---10--10--10--| 
D|-8----8---8----8---8---8---|-8---8----8----8---8---8---| 
A|-8----8---8----8---8---8---|-8---8----8----8---8---8---| 
D|-8----8---8----8---8---8---|-8---8----8----8---8---8---| 

E|---------------------------------|---------------------------------| 
B|-10--10--10--10--10--10--10--10--|-10--10--10--10--10--------------| 
G|-9---9---9---9---9---9---9---9---|-9---9---9---9---9---------------| 
D|-7---7---7---7---7---7---7---7---|-7---7---7---7---7---7---5---3---| 
A|-7---7---7---7---7---7---7---7---|-7---7---7---7---7---7---5---3---| 
D|-7---7---7---7---7---7---7---7---|-7---7---7---7---7---7---5---3---| 

Riff 3b (w/ dist)   

E|---------------------------|---------------------------| 
B|------11--11---11--11--11--|-11--11---11---11--11--11--| 
G|------10--10---10--10--10--|-10--10---10---10--10--10--| 
D|-8----8---8----8---8---8---|-8---8----8----8---8---8---| 
A|-8----8---8----8---8---8---|-8---8----8----8---8---8---| 
D|-8----8---8----8---8---8---|-8---8----8----8---8---8---| 

E|---------------------------------|---------------------------------| 
B|-10--10--10--10--10--10--10--10--|-10--10--10--10--10--10--10--10--| 
G|-9---9---9---9---9---9---9---9---|-9---9---9---9---9---9---9---9---| 
D|-7---7---7---7---7---7---7---7---|-7---7---7---7---7---7---7---7---| 
A|-7---7---7---7---7---7---7---7---|-7---7---7---7---7---7---7---7---| 
D|-7---7---7---7---7---7---7---7---|-7---7---7---7---7---7---7---7---| 

Riff 4a (w/ dist) - Choruses, 5 variations (see song structure for correct playing) 

E|------------------------|------------------------| 
B|------3----3---3---3----|------6----6---6---6----| 
G|------2----2---2---2----|------5----5---5---5----| 
D|-0----0----0---0---0----|-3----3----3---3---3----| 
A|-0----0----0---0---0----|-3----3----3---3---3----| 
D|-0----0----0---0---0----|-3----3----3---3---3----| 

E|---------------------------|---------------------------| 
B|---------------11--11--11--|-11--11---11---11--11--11--| 
G|---------------10--10--10--|-10--10---10---10--10--10--| 
D|-8----8---8----8---8---8---|-8---8----8----8---8---8---| 
A|-8----8---8----8---8---8---|-8---8----8----8---8---8---| 
D|-8----8---8----8---8---8---|-8---8----8----8---8---8---| 

Riff 4b (w/ dist) 

E|------------------------|------------------------| 
B|------3----3---3---3----|------6----6---6---6----| 
G|------2----2---2---2----|------5----5---5---5----| 
D|-0----0----0---0---0----|-3----3----3---3---3----| 
A|-0----0----0---0---0----|-3----3----3---3---3----| 
D|-0----0----0---0---0----|-3----3----3---3---3----| 

E|---------------------------|---------------------------| 
B|---------------11--11--11--|-11--11---11---------------| 
G|---------------10--10--10--|-10--10---10---------------| 
D|-8----8---8----8---8---8---|-8---8----8----7---5---3---| 
A|-8----8---8----8---8---8---|-8---8----8----7---5---3---| 
D|-8----8---8----8---8---8---|-8---8----8----7---5---3---| 

Riff 4c (w/ dist) 

E|---------------------|---------------------|--------| 
B|------3----3----3----|------6----6----6----|--------| 
G|------2----2----2----|------5----5----5----|--------| 
D|-0----0----0----0----|-3----3----3----3----|-1------| 
A|-0----0----0----0----|-3----3----3----3----|-1------| 
D|-0----0----0----0----|-3----3----3----3----|-1------| 

Riff 4d (w/ dist) 

E|---------------------|---------------------| 
B|------3----3----3----|------6----6----6----| 
G|------2----2----2----|------5----5----5----| 
D|-0----0----0----0----|-3----3----3----3----| 
A|-0----0----0----0----|-3----3----3----3----| 
D|-0----0----0----0----|-3----3----3----3----| 

E|-----------------------------|------------------------------------| 
B|-----------11--11-11-11--11--|-11--11-11-11--11-------------------| 
G|-----------10--10-10-10--10--|-10--10-10-10--10-------------------| 
D|-8----8----8---8--8--8---8---|-8---8--8--8---8--------------------| 
A|-8----8----8---8--8--8---8---|-8---8--8--8---8---////////////////-| 
D|-8----8----8---8--8--8---8---|-8---8--8--8---8---////////////////-| 
                                                   pick scratch here. 

Riff 4e (w /dist) 

E|---------------------|---------------------| 
B|------3----3----3----|------6----6----6----| 
G|------2----2----2----|------5----5----5----| 
D|-0----0----0----0----|-3----3----3----3----| 
A|-0----0----0----0----|-3----3----3----3----| 
D|-0----0----0----0----|-3----3----3----3----| 

E|------------------------------|---------------------------------| 
B|------11--11--11--11--11--11--|-11--11--11--11--11--11--11--11--| 
G|------10--10--10--10--10--10--|-10--10--10--10--10--10--10--10--| 
D|-8----8---8---8---8---8---8---|-8---8---8---8---8---8---8---8---| 
A|-8----8---8---8---8---8---8---|-8---8---8---8---8---8---8---8---| 
D|-8----8---8---8---8---8---8---|-8---8---8---8---8---8---8---8---| 

Riff 5 (w /dist and wah-wah) - Played after the first Chorus 

E|------------------------------|------------------------------| 
B|------------------------------|------------------------------| 
G|-14---14--14--14--14--14--14--|-17---17--17--17--17--17--17--| 
D|-x----x---x---x---x---x---x---|-x----x---x---x---x---x---x---| 
A|-12---12--12--12--12--12--12--|-15---15--15--15--15--15--15--| 
D|------------------------------|------------------------------| 

E|------------------------------|------------------------------| 
B|------------------------------|------------------------------| 
G|-10---10--10--10--10--10--10--|-10--10--10--10--10--10-------| 
D|-x----x---x---x---x---x---x---|-x---x---x---x---x---x--------| 
A|-8----8---8---8---8---8---8---|-8---8---8---8---8---8--------| 
D|------------------------------|------------------------------| 

E|------------------------------|------------------------------| 
B|------------------------------|------------------------------| 
G|-7----7---7---7---7---7---7---|-10---10--10--10--10--10--10--| 
D|-x----x---x---x---x---x---x---|-x----x---x---x---x---x---x---| 
A|-5----5---5---5---5---5---5---|-8----8---8---8---8---8---8---| 
D|------------------------------|------------------------------| 

E|------------------------------|----------------| 
B|------------------------------|----------------| 
G|-13---13--13--13--13--13--13--|-13--13---------| 
D|-x----x---x---x---x---x---x---|-x---x----------| 
A|-11---11--11--11--11--11--11--|-11--11---------| 
D|------------------------------|----------------| 

Riff 6a (w/ overdrive) - bridge, 2 variations 

E|---------------------------------|---------------------------------| 
B|---------------------------------|---------------------------------| 
G|---------------------------------|---------------------------------| 
D|---------------------------------|---------------------------------| 
A|---------------------------------|---------------------------------| 
D|-0---3---5---0---5---6---0---6---|-7---0---7---10--0---6---7---0---| 

E|---------------------------------|------------------------------| 
B|---------------------------------|------------------------------| 
G|---------------------------------|------------------------------| 
D|---------------------------------|------------------------------| 
A|---------------------------------|-------------0---0---0--------| 
D|-5---6---0---3---5---0---5---6---|-0---3---5---0---0---0---3b---| 
                                                 *   *   * 

Riff 6b (w/ overdrive) 

E|---------------------------------|---------------------------------| 
B|---------------------------------|---------------------------------| 
G|---------------------------------|---------------------------------| 
D|---------------------------------|---------------------------------| 
A|---------------------------------|---------------------------------| 
D|-0---3---5---0---5---6---0---6---|-7---0---7---10--0---6---7---0---| 

E|---------------------------------|------------------------------| 
B|---------------------------------|------------------------------| 
G|---------------------------------|------------------------------| 
D|---------------------------------|------------------------------| 
A|---------------------------------|-----------------0---0--------| 
D|-5---6---0---3---5---0---5---6---|-0---3---5---3---0---0---3----| 
                                                     *   * 

Riff 7 (w/ dist) - bridge 

E|---------------------|----------------|--------------|------------------| 
B|---------------------|----------------|--------------|------------------| 
G|---------------------|----------------|--------------|------------------| 
D|---------------------|----------------|--------------|------------------| 
A|----0---0---0--------|-0-----------0--|-0------------|-0---0---------0--| 
D|----0---0---0---3b---|-0-----------0--|-0------------|-0---0---------0--| 
      *   *   *                      *    *              *   *         * 
E|---------------------|----------------|-------------|-------------------| 
B|---------------------|----------------|-------------|-------------------| 
G|---------------------|----------------|-------------|-------------------| 
D|---------------------|----------------|-------------|-------------------| 
A|-0------0---0--------|-0-----------0--|-0-----------|-0---0----------0--| 
D|-0------0---0---3b---|-0-----------0--|-0-----------|-0---0----------0--| 
   *      *   *                      *    *             *   *          * 
E|---------------------|----------------|-------------|-------------------| 
B|---------------------|----------------|-------------|-------------------| 
G|---------------------|----------------|-------------|-------------------| 
D|---------------------|----------------|-------------|-------------------| 
A|-0------0---0--------|-0-----------0--|-0-----------|-0---0----------0--| 
D|-0------0---0---3b---|-0-----------0--|-0-----------|-0---0----------0--| 
   *      *   *                      *    *             *   *          * 
E|---------------------|----------------|-------------|-------------------| 
B|---------------------|----------------|-------------|-------------------| 
G|---------------------|----------------|-------------|-------------------| 
D|---------------------|----------------|-------------|-------------------| 
A|-0------0---0--------|-0-----------0--|-0-----------|-0---0-------------| 
D|-0------0---0---3b---|-0-----------0--|-0-----------|-0---0-------------| 
   *      *   *                      *    *             *   * 
E|---------------------------------| 
B|---------------------------------| 
G|---------------------------------| 
D|---------------------------------| 
A|-0---0-------0-------0---0---0---| 
D|-0---0-------0-------0---0---0---| 
   *                   *   * 

Riff 8 (w/ dist) - rhythm for solo 

E|---------------------------|------------------------------| 
B|---------------8---8---8---|-8---8---8---8----8---8---8---| 
G|---------------7---7---7---|-7---7---7---7----7---7---7---| 
D|-5----5---5----5---5---5---|-5---5---5---5----5---5---5---| 
A|-5----5---5----5---5---5---|-5---5---5---5----5---5---5---| 
D|-5----5---5----5---5---5---|-5---5---5---5----5---5---5---| 

E|---------------------------------|-------------------------------| 
B|-11--11--11--11--11--11--11--11--|-10--10--10--10----------------| 
G|-10--10--10--10--10--10--10--10--|-9---9---9---9-----------------| 
D|-8---8---8---8---8---8---8---8---|-7---7---7---7----7---5---3----| 
A|-8---8---8---8---8---8---8---8---|-7---7---7---7----7---5---3----| 
D|-8---8---8---8---8---8---8---8---|-7---7---7---7----7---5---3----| 

Riff 9 (w/ dist and wah-wah) - pre-solo section 

E|-10-----|-----10--10--10--10----|-12-----|-----12--12--12--12----| 
B|-13b----|---pb13pb13pb13pb13----|-15b----|---pb15pb15pb15pb15----| 
G|--------|-----------------------|--------|-----------------------| 
D|--------|-----------------------|--------|-----------------------| 
A|--------|-----------------------|--------|-----------------------| 
D|--------|-----------------------|--------|-----------------------| 

E|-13-----|-----13--13--13--13----|-15-----|-----15--15--15--15----| 
B|-16b----|---pb16pb16pb16pb16----|-18b----|---pb18pb18pb18pb18----| 
G|--------|-----------------------|--------|-----------------------| 
D|--------|-----------------------|--------|-----------------------| 
A|--------|-----------------------|--------|-----------------------| 
D|--------|-----------------------|--------|-----------------------| 

Riff 10a (w/ dist and wah-wah) - played in the outro 
                       
E|-10-----|-8------|-6------|--------| 
B|-13b----|-11b----|-9b-----|--------| 
G|--------|--------|--------|--------| 
D|--------|--------|--------|--------| 
A|--------|--------|--------|--------| 
D|--------|--------|--------|--------| 

Riff 10b (w/ dist and wah-wah) 

E|-10-----|-12-----|-13-----|--------| 
B|-13b----|-15b----|-16b----|--------| 
G|--------|--------|--------|--------| 
D|--------|--------|--------|--------| 
A|--------|--------|--------|--------| 
D|--------|--------|--------|--------| 

SOLO (w/ dist and wah-wah) 

E|-------|------------------------|---------------------------------|--------|--------| 
B|-19b---|-18`~~-16------18--16---|---------------------------------|--------|--------| 
G|-------|-----------17-----------|s19--17--------------------------|-18b~~~~|~~~~~~~~| 
D|-------|------------------------|---------19--18--17--------------|--------|--------| 
A|-------|------------------------|---------------------20--17--20--|--------|--------| 
D|-------|------------------------|---------------------------------|--------|--------| 
           
SONG STRUCTURE (note: "+" means played at the same time) 

INTRO 
Riff 1 x2 
Riff 1 x2 + Riff 2 

VERSE 
Riff 1 x4 

Pre-Chorus 
Riff 3a 

Chorus 
Riff 4a 
Riff 4b 
Riff 4a 
Riff 4c 
Riff 1 x2 + Riff 5 

verse 2 
Riff 1 x4 

Pre-Chorus 2 
Riff 3b 

Chorus 2 
Riff 4a 
Riff 4b 
Riff 4a 
Riff 4d 

BRIDGE  
Riff 6a 
Riff 6b x3 + Riff 7 

PRE-SOLO 
Riff 1 x2 + Riff 9 

SOLO 
Riff 8 + SOLO 

Chorus 3 
Riff 4a 
Riff 4b 
Riff 4a 
Riff 4e 

OUTRO 
Riff 4b + Riff 10a  
Riff 4a + Riff 10b 
Riff 4a + Riff 10a 
Riff 4c + Riff 10b 
Riff 1 (1/4) 

************************************ 

| *   palm mute 
| s   slide  
| ~   vibrato 
| `   semi-harmonic (pick the note really hard) 
| x   Mute note 
| b   Bend 
| pb  Pre-bend 

************************************ 
	  

Search Paypal
auto scroll beats size up size down change color hide chords drawings
tab show chords e-chords YouTube Clip e-chords hide all tabs e-chords go to top tab