Glória

Foi Você, Saudade E Eu

Glória

tabs

by  HEBEALMEIDA

save to print version add songbook text version e-mail correct tuner
chordsukulelecavacokeyboardtabbassdrumsharmonicaflute Guitar Pro
close

there isn't a video lesson for this song

chords

Foi Você, Saudade E Eu

	  		Intro: 


B||---------------|
F#|-5-8------7-8--|
B||------7-5------|
E||---------------|
G#|---------------|
C#|---------------|


Meu mundo acabou quando olhei...

B||---------------|
F#|-5-8------7-8--|
B||------7-5------|
E||---------------|
G#|---------------|
C#|---------------|



B||-0~---0-0-0-0-0-0-0-0-0---0-0-0-0-0-0-0-0-0---|
F#|-0~---0-0-0-0-0-0-0-0-0---0-0-0-0-0-0-0-0-0---|
B||-0~---0-0-0-0-0-0-0-0-0---0-0-0-0-0-0-0-0-0---|
E||----------------------------------------------|
G#|----------------------------------------------|
C#|----------------------------------------------|


Pra trás e vi que a lagrima secou...

B||---------------|
F#|-5-8------7-8--|
B||------7-5------|
E||---------------|
G#|---------------|
C#|---------------|


...O seu olhar.


B||-0~---0-0-0-0-0-0-0-0-0---0-0-0-0-0-0-0-0-0-|
F#|-0~---0-0-0-0-0-0-0-0-0---0-0-0-0-0-0-0-0-0-|
B||-0~---0-0-0-0-0-0-0-0-0---0-0-0-0-0-0-0-0-0-|
E||--------------------------------------------|
G#|--------------------------------------------|
C#|--------------------------------------------|


São as pequenas coisas que agente nunca esquece.


B||----------------------|
F#|-1-----3-----5------8-|
B||-3-----5-----7-----10-|
E||-3-----5-----7-----10-|
G#|----------------------|
C#|----------------------|


São as pequenas coisas, que agente...


B||-----------|
F#|-1-----3---|
B||-3-----5---|
E||-3-----5---|
G#|-----------|
C#|-----------|


E eu estarei esperando o fim do meu coração em suas mãos...


B||-0-0--------3-3--------5-5------5-5------|
F#|-0-0--------3-3--------5-5------5-5------|
B||-0-0-(5)----3-3-(5)----5-5--(5)-5-5-(5)--|
E||-----(5)--------(5)- -------(5)-----(5)--|
G#|-----(5)--------(5)---------(5)-----(5)--|
C#|-----------------------------------------|


E eu vou viver juntando os restos do meu castelo que eu construí pra ti.


B||-0-0-------3-3--------5-5------5-5------|
F#|-0-0-------3-3--------5-5------5-5------|
B||-0-0-(5)---3-3-(5)----5-5-(5)--5-5-(5)--|
E||-----(5)-------(5)- ------(5)------(5)--|
G#|-----(5)-------(5)--------(5)------(5)--|
C#|----------------------------------------|


Vai ser difícil, eu sem você...

B||---------------|
F#|-5-8------7-8--|
B||------7-5------|
E||---------------|
G#|---------------|
C#|---------------|



B||-0~---0-0-0-0-0-0-0-0-0---0-0-0-0-0-0-0-0-0-|
F#|-0~---0-0-0-0-0-0-0-0-0---0-0-0-0-0-0-0-0-0-|
B||-0~---0-0-0-0-0-0-0-0-0---0-0-0-0-0-0-0-0-0-|
E||--------------------------------------------|
G#|--------------------------------------------|
C#|--------------------------------------------|

Mais quero que saiba que eu te amarei todos os dias.


B||---------------|
F#|-5-8------7-8--|
B||------7-5------|
E||---------------|
G#|---------------|
C#|---------------|



B||-0~---0-0-0-0-0-0-0-0-0---0-0-0-0-0-0-0-0-0--|
F#|-0~---0-0-0-0-0-0-0-0-0---0-0-0-0-0-0-0-0-0--|
B||-0~---0-0-0-0-0-0-0-0-0---0-0-0-0-0-0-0-0-0--|
E||---------------------------------------------|
G#|---------------------------------------------|
C#|---------------------------------------------|


São as pequenas coisas que agente nunca esquece


B||------------------------|
F#|-1-----3-----5------8---|
B||-3-----5-----7-----10---|
E||-3-----5-----7-----10---|
G#|------------------------|
C#|------------------------|


São as pequenas coisas, que agente...


B||-----------|
F#|-1-----3---|
B||-3-----5---|
E||-3-----5---|
G#|-----------|
C#|-----------|


Todo esse tempo que eu rezei pra você voltar e ver que esta tudo bem

B||-0-0-------3-3--------5-5------5-5------|
F#|-0-0-------3-3--------5-5------5-5------|
B||-0-0-(5)---3-3-(5)----5-5-(5)--5-5-(5)--|
E||-----(5)-------(5)- ------(5)------(5)--|
G#|-----(5)-------(5)--------(5)------(5)--|
C#|----------------------------------------|


O que me conforta é saber que o mesmo céu que vejo ilumina nós dois

B||-0-0-------3-3--------5-5------5-5------|
F#|-0-0-------3-3--------5-5------5-5------|
B||-0-0-(5)---3-3-(5)----5-5-(5)--5-5-(5)--|
E||-----(5)-------(5)- ------(5)------(5)--|
G#|-----(5)-------(5)--------(5)------(5)--|
C#|----------------------------------------|


E eu sei que eu viver assim... Te esperando

B||-0-0-0-0-0-0-0-0-0-0-0-0-0--|
F#|-0-0-0-0-0-0-0-0-0-0-0-0-0--|
B||-0-0-0-0-0-0-0-0-0-0-0-0-0--|
E||----------------------------|
G#|----------------------------|
C#|----------------------------|

PM_____________________ (Abafado)

Sei que a mesma estrela vai brilhar em algum lugar...

B||------------------------------------------------------|
F#|-1-1-1-1-1-1-1--3-3-3-3-3-3-3--5-5-5-5-5-5-5-5-5-5-5--|
B||-3-3-3-3-3-3-3--5-5-5-5-5-5-5--7-7-7-7-7-7-7-7-7-7-7--|
E |-3-3-3-3-3-3-3--5-5-5-5-5-5-5--7-7-7-7-7-7-7-7-7-7-7--|
G#|------------------------------------------------------|
C#|------------------------------------------------------|


Mais você sempre estará aqui, sempre comigo.


B||-------------------------------------------------------------|
F#|--8--8---8---8---8---8---8--3-3-3-3-3-3--5-5-5-5-5-5-5-5-5-5-|
B||-10-10--10--10--10--10--10--5-5-5-5-5-5--7-7-7-7-7-7-7-7-7-7-|
E |-10-10--10--10--10--10--10--5-5-5-5-5-5--7-7-7-7-7-7-7-7-7-7-|
G#|-------------------------------------------------------------|
C#|-------------------------------------------------------------|



B||-0-0-0-0----0-0-0-0-0---0-0-0-0---0-0-0-0-0-0-0--|
F#|-0-0-0-0----0-0-0-0-0---0-0-0-0---0-0-0-0-0-0-0--|
B||-0-0-0-0----0-0-0-0-0---0-0-0-0---0-0-0-0-0-0-0--| (2x)
E||-------------------------------------------------|
G#|-------------------------------------------------|
C#|-------------------------------------------------|



B||------------------------------------------------|
F#|-5-5/7-7-7/-8--8--8--8/10-10-10-10/12-12-12-12\-|
B||-x-x/x-x-x/-x--x--x--x/-x--x--x--x/-x--x--x--x\-| (4x)
E |-7-7/9-9-9/10-10-10-10/12-12-12-12/14-14-14-14\-|
G#|------------------------------------------------|
C#|------------------------------------------------|



E eu vou te esperar...
B||-------------------------------------------------|
F#|-5-5/7-7-7/-8--8--8--8/10-10-10-10/12-12-12-12\--|
B||-x-x/x-x-x/-x--x--x--x/-x--x--x--x/-x--x--x--x\--| 
E |-7-7/9-9-9/10-10-10-10/12-12-12-12/14-14-14-14\--| (4x)
G#|-------------------------------------------------|
C#|-------------------------------------------------|

		

Meu mundo acabou, quando olhei pra traz e vi que a lagrima secou o seu olhar...
B||-0-0-0-0-1-1-1-1-1-1-|
F#|-0-0-0-0-1-1-1-1-1-1-|
B||-0-0-0-0-1-1-1-1-1-1-| (4x)
E||---------------------|
G#|---------------------|
C#|---------------------|


São as pequenas coisas que agente nunca esquece...

B||-0-0-0-0-1-1-1-1-1-1-|
F#|-0-0-0-0-1-1-1-1-1-1-|
B||-0-0-0-0-1-1-1-1-1-1-| (4x)
E||---------------------|
G#|---------------------|
C#|---------------------|


E eu sei que eu viver assim... Te esperando

B||-0-0-0-0-0-0-0-0-0-0-0-0-0--|
F#|-0-0-0-0-0-0-0-0-0-0-0-0-0--|
B||-0-0-0-0-0-0-0-0-0-0-0-0-0--|
E||----------------------------|
G#|----------------------------|
C#|----------------------------|

PM_____________________ (Abafado)

Sei que a mesma estrela vai brilhar em algum lugar...

B||------------------------------------------------------|
F#|-1-1-1-1-1-1-1--3-3-3-3-3-3-3--5-5-5-5-5-5-5-5-5-5-5--|
B||-3-3-3-3-3-3-3--5-5-5-5-5-5-5--7-7-7-7-7-7-7-7-7-7-7--|
E |-3-3-3-3-3-3-3--5-5-5-5-5-5-5--7-7-7-7-7-7-7-7-7-7-7--|
G#|------------------------------------------------------|
C#|------------------------------------------------------|


Mais você sempre estará aqui, sempre comigo.

B||----------------------------------------------------------------------------|
F#|--8--8---8---8---8---8----8--3-3-3-3-3-3--5-5-5-5-5-5-5-5-5-5-x-x-x-x-x-x---|
B||-10-10--10--10--10--10---10--5-5-5-5-5-5--7-7-7-7-7-7-7-7-7-7-x-x-x-x-x-x---|
E||-10-10--10--10--10--10---10--5-5-5-5-5-5--7-7-7-7-7-7-7-7-7-7-x-x-x-x-x-x---|
G#|----------------------------------------------------------------------------|
C#|----------------------------------------------------------------------------|


Sei que a mesma estrela vai brilhar em algum lugar...

B||------------------------------------------------------|
F#|-1-1-1-1-1-1-1--3-3-3-3-3-3-3--5-5-5-5-5-5-5-5-5-5-5--|
B||-3-3-3-3-3-3-3--5-5-5-5-5-5-5--7-7-7-7-7-7-7-7-7-7-7--|
E |-3-3-3-3-3-3-3--5-5-5-5-5-5-5--7-7-7-7-7-7-7-7-7-7-7--|
G#|------------------------------------------------------|
C#|------------------------------------------------------|


Mais você sempre estará aqui, sempre comigo.

B||----------------------------------------------------------------|
F#|--8--8---8---8---8---8---8--8--3-3-3-3-3--5-5-5-5-5-5-5-5-5-5---|
B||-10-10--10--10--10--10--10--5--5-5-5-5-5--7-7-7-7-7-7-7-7-7-7---|
E||-10-10--10--10--10--10--10--5--5-5-5-5-5--7-7-7-7-7-7-7-7-7-7---|
G#|----------------------------------------------------------------|
C#|----------------------------------------------------------------|



B||------------------------------------------------|
F#|-5-5/7-7-7/-8--8--8--8/10-10-10-10/12-12-12-12\-|
B||-x-x/x-x-x/-x--x--x--x/-x--x--x--x/-x--x--x--x\-| (3x)
E |-7-7/9-9-9/10-10-10-10/12-12-12-12/14-14-14-14\-|
G#|------------------------------------------------|
C#|------------------------------------------------|



B||--------------------------------------------------|
F#|-5-5/7-7-7/-8--8--8--8/10-10-10-10/12-12-12-12-5\-|
B||-x-x/x-x-x/-x--x--x--x/-x--x--x--x/14-14-14-14-7\-| 
E |-7-7/9-9-9/10-10-10-10/12-12-12-12/14-14-14-14-7\-|
G#|--------------------------------------------------|
C#|--------------------------------------------------| 
		  

See also:

tabs Charlie Brown Jr. - Vou te levar tabs Charlie Brown Jr. - Essa é pra quem ficou pra trás tabs Charlie Brown Jr. - Festa tabs Charlie Brown Jr. - My Mini Ramp tabs Glória - Horizontes tabs Charlie Brown Jr. - Confisco
e-chords

Other versions:

tabs Glória - Foi Você, Saudade E Eu
auto scroll beats size up size down change color hide chords drawings
tab show chords e-chords YouTube Clip e-chords hide all tabs e-chords go to top tab

share