Giraffes Giraffes

home > Giraffes Giraffes

Drgnfkr Tab

Giraffes Giraffes

Difficulty: nolevelnolevel

by carlluz

tuner correct add songbook print version text version save to e-mail
chordsukulelecavacokeyboardtabbassdrumsharmonicsflute Guitar Pro
chords

Drgnfkr

  		

Riff 1 
D------------------------------------------------------------| 
A---------2---------2---------2------------------------------| 
G--------------------------------------2--------2--------2---| 
D------------------------------------------------------------| 
A---2h5p2-----2h5p2-----2h5p2-----2h5p2----2h5p2----2h5p2----| 
D-5---------5---------5---------4--------4--------4----------| 


Riff 2 Repeat X4                                                          Ending 2nd and 4th time 
D-------------------------------------------------------------------------------------I----------------| 
A-------2h5p2----2h5p2-2h7p2-2h5p2------2h5p2-2h7p2-2h9p2-2h7p2-2h5p2-2h4p2-----------I----------------| 
G-------------------------------------------------------------------------------------I----------------| 
D-------------------------------------------------------------------------------------I----------------| 
A-2h5p2---------------------------2h5p2-------------------------------------2h7p2-----I--2h9p2-2h7p2---| 
D-------------------------------------------------------------------------------------I----------------| 


Riff 3                                                          Riff 3 ending x2 
D------------------------------------------------------------I-----------------------| 
A---------2---------2---------2------------------------------I-----------------------| 
G--------------------------------------6--------6--------6---I------7------7----7----| 
D------------------------------------------------------------I-----------------------| 
A---2h5p2-----2h5p2-----2h5p2-----2h7p2----2h7p2----2h7p2----I---2h9---2h9---2h9-----| 
D-5---------5---------5---------7--------7--------7----------I--9-----9--------------| 

(start to 1:11) 
Riff 1 
Riff 2 
Riff 3 
Riff 1 
Riff 2 
Riff 3 X3 (3rd time without ending) 

Riff 4 
D--------------------------------------------------------------------------------------| 
A--7-------5-------5-7---------7-------5-------5-7---------7------------5--------------| 
G--------------------------------------------------------------------------------------| 
D--------------------------------------------------------------------------------------| 
A--2-2-2-2-2-2-2-2-2-2-2-2-2-2---------------------------------------------------------| 
D------------------------------5-5-5-5-5-5-5-5-5-5-5-5-5-5-2-2-2-2-2-2-2-2-2-2-2-2-2-2-| 

Riff 4 contd 
D-----7-----7---------2----------------------------------------------------------------| 
A--------------------------------------------------------------------------------------| 
G--9----9-----9----11---9--9---9/11-11-11/7-7-7------7/9-9/4---------------------------| 
D--------------------------------------------------------------------------------------| 
A--2-2-2-2-2-2-2-2-2-2-2-2-2-2---------------------------------------------------------| 
D------------------------------5-5-5-5-5-5-5-5-5-5-5-5-5-5-2-2-2-2-2-2-2-2-2-2-2-2-2-2-| 

Riff 4 contd 
D--12-----11-------9-----------9------7------4-----------------------------------------| 
A-------------------------------------------------------------------2--2--2------------| 
G--11------9-------7-----------7------7------4--7--7/9/----7------4--4--4--------------| 
D--------------------------------------------------------------------------------------| 
A--2-2-2-2-2-2-2-2-2-2-2-2-2-2---------------------------------------------------------| 
D------------------------------5-5-5-5-5-5-5-5-5-5-5-5-5-5-2-2-2-2-2-2-2-2-2-2-2-2-2-2-| 

Riff 5 (1:45) Dance! 
D-----------------------------------------9------------------------------------------| 
A-----------------------------------------9------------------------------------------| 
G------7-----7-----7-----7---7----7--------------7-----7-----7-----7---7----7--------| 
D------------------------------9----9------------------------------------9----9------| 
A----9-----9-----9-----7-----------------------9-----9-----9-----7-------------------| 
D--9-----9-----9-----7-----9-----------9-----9-----9-----9-----7-----9-------------9-| 

Riff 6 Closest I could get 
D----------------------------------------------------------| 
A----------------------------------------------------------| 
G------4-4-4--4-4---4-4-4--4-4---4-4-4--4-4---4-4-4--4-4---| 
D----5------5-------5----5------5-----5------5-----5-------| 
A----------------------------------------------------------| 
D--5----------5---5--------5---5-------5---5--------5------| 

Riff 7 
D------------------| 
A-----5-5-4-4-4-2--| 
G------------------| 
D------------------| 
A--5-5---5-5-5-5---| 
D------------------| 


Riff 8 
D---------------------5-5-4-4-4---| 
A-----5-5-4-4-4-2-----------------| 
G---------------------------------| 
D------------------5-5---5-5-5----| 
A--5-5---5-5-5-5------------------| 
D---------------------------------| 


Riff 9 (2:14) Closest I could get 
D--9h12p9-5h7p5----------| 
A---------------5h7p5-2--| 
G------------------------| 
D------------------------| 
A------------------------| 
D------------------------| 


Riff 10 
D----7-7-7-7-7-7-7-7-8-8-8-8-8-9-9-9-11-11-12--| 
A----------------------------------------------| 
G----------------------------------------------| 
D---7-7-7-7-7-7-7-7-8-8-8-8-8-8-9-9-9-11-11----| 
A----------------------------------------------| 
D----------------------------------------------| 


Riff 11 
D----------------------------------------------------------------------------------------------------| 
A----------------------------------------------------------------------------------------------------| 
G----11------11------11-----------11----11----11------------2-----2-----2-----------2-----2-----2----| 
D---------------------------------------------------------4-----4-----4-----------4-----4-----4------| 
A--12------12------12-----------12----12----12-------------------------------------------------------| 
D-12-----12------12-----11----12----12----12----11------4-----4-----4-----3-----4-----4-----4-----3--| 


Riff 11 contd (last chord let ring 3 times) 
D------------------------------------------------------| 
A--------------------------------------------------2---| 
G--------------------------------------------------4---| 
D----2-5---2-5---2-5---------2-5---2-5---2-5-------4---| 
A--------------------------------------------------2---| 
D--2-----2-----2-----5-----2-----2-----2-----5---------| 

(1:11 to 3:18) 
Riff 4 
Riff 5 
Riff 6 
Riff 7 
Riff 6 
Riff 8 x2 
Riff 9 
Riff 6 
Riff 7 
Riff 6 
Riff 8 x2 
Riff 10 
Riff 5 
Riff 11 

Time to loop! (3:18 to end) 

Riff 12 (Loop 1) 
D-------7------------------| 
A----9-----7--9--5--7--2---| 
G--------------------------| 
D--------------------------| 
A--0-----------------------| 
D--------------------------| 


Riff 13 (Loop 2) 
D--------------------------| 
A--------------------------| 
G--------------7-----------| 
D--9--7-----------------7--| 
A--------9--7-----7--9-----| 
D--------------------------| 


Riff 14 (Loop 3) w/tremolo effect 
D--7h9p7---------------------| 
A-----------5h7p5------------| 
G--------------------2h4p2---| 
D----------------------------| 
A----------------------------| 
D----------------------------| 

Riff 15 (Loop 4) 
D----------------| 
A--9/12----10/9--| 
G----------------| 
D----------------| 
A----------------| 
D----------------| 

There's other lead notes that are played along with the loops til 6:38, kick loops off and 
keyboards end it. 
	  

Search Paypal
auto scroll beats size up size down change color hide chords drawings
tab show chords e-chords YouTube Clip e-chords hide all tabs e-chords go to top tab