save to print version add songbook text version e-mail correct tuner
chordsukulelecavacokeyboardtabbassdrumsharmonicaflute Guitar Pro
close

there isn't a video lesson for this song

chords

Astig

Key:  Em More
Astig Key BmBm
Astig Key CmCm
Astig Key C#mC#m
Astig Key DmDm(one step down)
Astig Key D#mD#m(half step down)
Astig Key EmEm(original key)
Astig Key FmFm(half step up)
Astig Key F#mF#m(one step up)
Astig Key GmGm
Astig Key G#mG#m
Astig Key AmAm
Astig Key A#mA#m
	  		
Intro: (play around this, paulit-ulit lang naman to) 
e|-----------------------------------------------| 
B|-----------------------------------------------| 
G|-----------------------------------------------| 
D|-8/10h----------------10-11-11-10-10-----------| 
A|-8/10h11p10-10--------10-11-11-10-10-----------| 
D|-8/10h11p10-10--10H11-10-11-11-10-10-----------| 

e|-----------------------------------------------| 
B|-----------------------------------------------| 
G|-----------------------------------------------| 
D|-------10-10-11-11-10-10-----------------------| 
A|-------10-10-11-11-10-10-----------------------| 
D|-10H11-10-10-11-11-10-10-----------------------| 

Guitar 2 riff(use wah-wah chenelyn) 
e|-----------------------------------------------| 
B|-----------------------------------------------| 
G|-5h6-5h6-5h6-----------------------------------| 
D|-----------------------------------------------| 
A|-----------------------------------------------| 
D|-----------------------------------------------| 
You're gonna die forever! 
Wow!!!! 
(ulit-ulitin niyo lang intro 'gang magsawa kayo. haha) 

verse 1: 

Riff 1: 
e|-----------------------------------------------| 
B|-----------------------------------------------| 
G|-----------------------------------------------| 
D|----------5---555-3----------------------------| 
A|--3-3-3-6------------6-5-3---------------------| 
D|-----------------------------------------------| 
uso ang pacute 
bibili ako ng cute 

Riff 2: 
e|-----------------------------------------------| 
B|-----------------------------------------------| 
G|-----------------------------------------------| 
D|-----------------------------------------------| 
A|-3-3-6-3-2---2-2-3-6-2-3-3---------------------| 
D|-----------------------------------------------| 

Guitar 2 riff: 
e|----------------------------/7-7-7-7--/8-8-8-8-| 
B|--/8-8-8-8----/14-14-14-14---------------------| 
G|-----------------------------------------------| 
D|-----------------------------------------------| 
A|-----------------------------------------------| 
D|-----------------------------------------------| 
uso ang maangas 
ilalabas ko aking ahas 

e|-----------------------------------------------| 
B|-----------------------------------------------| 
G|-----------------------------------------------| 
D|----------5---555-3----------------------------| 
A|--3-3-3-6------------6-5-3---------------------| 
D|-----------------------------------------------| 
uso malungkot 
malungkot aking utot 

e|-----------------------------------------------| 
B|-----------------------------------------------| 
G|-----------------------------------------------| 
D|-----------------------------------------------| 
A|-3-3-6-3-2---2-2-3-6-2-3-3---------------------| 
D|-----------------------------------------------| 
uso ang bago 
magugunaw ang mundo 

REFRAIN: 
e|-----------------------------------------------| 
B|-----------------------------------------------| 
G|-----------------------------------------------| 
D|--10-----5---6---8---10------------------------| 
A|--10-----5---6---8---10------------------------| 
D|--10-----5---6---8---10------------------------| 
uso maputi 
glutathione, glutathione 
uso maputi at glutathione 
uso ang sosyal  
frappucinno, frappucinno 
uso ang sosyal  
frappucinno 

verse 2: (Ganun din sa verse 1) 
uso ang sakit 
kunwari meron ako 
nang mauso internet 
ay nagfriends ako ng todo 
lahat ay sumigaw 
shout out ko,  
di na gigising 
di na mamimili 

e|-----------------------------------------------| 
B|-----------------------------------------------| 
G|-----------------------------------------------| 
D|--10-----5---6---8---10------------------------| 
A|--10-----5---6---8---10------------------------| 
D|--10-----5---6---8---10------------------------| 
uso ang tsinelas 
havaianas havaianas 
uso ang tsinelas 
havaianas 
uso ang sosyal  
frappucinno, frappucinno 
uso ang sosyal  
frappucinno 

e|-----------------------------------------------| 
B|-----------------------------------------------| 
G|-----------------------------------------------| 
D|-------5-8-5-----------------------------------| 
A|--6-8---------8/10-8-6-------------------------| 
D|-----------------------------------------------| 
gagawin ko ang lahat 
gagawin ko ang lahat 

e|-----------------------------------------------| 
B|-----------------------------------------------| 
G|-----------------------------------------------| 
D|---4---3---8---6---5---------------------------| 
A|---4---3---8---6---5---------------------------| 
D|---4---3---8---6---5---------------------------| 
kahit anong meron ang kapitbahay ko 
bibili ako 
para lang ako'y  

e|-----------------------------------------------| 
B|-10h12-12-10-8---------------------------------| 
G|----------------9--7v--------------------------| 
D|-----------------------------------------------| 
A|-----------------------------------------------| 
D|-----------------------------------------------| 
maging astig 

e|---------------10/12p10------------------------| 
B|-10h12-12-10-8----------10b-10-----------------| 
G|-----------------------------------------------| 
D|-----------------------------------------------| 
A|-----------------------------------------------| 
D|-----------------------------------------------| 
astig 

astig 
gotta be astig for life 

(INTRO ULI) 
e|-----------------------------------------------| 
B|-----------------------------------------------| 
G|-----------------------------------------------| 
D|-8/10h----------------10-11-11-10-10-----------| 
A|-8/10h11p10-10--------10-11-11-10-10-----------| 
D|-8/10h11p10-10--10H11-10-11-11-10-10-----------| 

astig magaling 
astig astig astig 
astig magaling (2X) 

(verse 1) 
(REFRAIN) 
uso maputi 
glutathione, glutathione 
uso maputi at glutathione 
uso ang sosyal  
frappucinno, frappucinno 
uso ang sosyal  
frappucinno 
uso ang tsinelas havaianas 
havaianas... 
uso ang tsinelas havaianas 
uso ang sosyal  
frappucinno, frappucinno 

e|-----------------------------------------------| 
B|-----------------------------------------------| 
G|-----------------------------------------------| 
D|-------5-8-5-----------------------------------|2x 
A|--6-8---------8/10-8-6-------------------------| 
D|-----------------------------------------------| 
gagawin ko ang lahat 
gagawin ko ang lahat 

e|-----------------------------------------------| 
B|-----------------------------------------------| 
G|-----------------------------------------------| 
D|---4---3---8---6---5---------------------------| 
A|---4---3---8---6---5---------------------------| 
D|---4---3---8---6---5---------------------------| 
kahit anong meron ang kapitbahay ko 
bibili ako (haha!) 
para lang ako'y  

e|-----------------------------------------------| 
B|-10h12-12-10-8---------------------------------| 
G|----------------9--7v--------------------------| 
D|-----------------------------------------------| 
A|-----------------------------------------------| 
D|-----------------------------------------------| 
maging astig 

e|---------------10/12p10------------------------| 
B|-10h12-12-10-8----------10b-10-----------------| 
G|-----------------------------------------------| 
D|-----------------------------------------------| 
A|-----------------------------------------------| 
D|-----------------------------------------------| 
astig 
astig 
gotta be astig for life 

(then ung usapang gago) 
Hey yo wazz up men wazzup pare 
You know what pare 
I was iyakin max pre 
We were like inuman the whole time 
Walang chaser, pare that's so astig 
that's so kanto 

How about you pare, ginawa mo last time? 
Last time I was driving my car while using my laptop 
Then I noticed while my tsinelas is blue 
one is sky blue, my god that's so BV 
That's so bad vibes men 
Yeah men, you know what we should do 
We should sing this men 


Chords used: Em-DM7 
tsong, tol, pare, men, dude (haha) 
tsong, tol, pare, men, dude 
tsong, tol, pare, men, dude 
gotta be astig for life 

I feel better na pare, you know what we should do 
let's sing it again 

then 
e|-----------------------------------------------| 
B|-10h12-12-10-8---------------------------------| 
G|----------------9--7v--------------------------| 
D|-----------------------------------------------| 
A|-----------------------------------------------| 
D|-----------------------------------------------| 
tsong, tol, pare, men, dude (one time) 

e|---------------10/12p10------------------------| 
B|-10h12-12-10-8----------10b-10-----------------| 
G|-----------------------------------------------| 
D|-----------------------------------------------| 
A|-----------------------------------------------| 
D|-----------------------------------------------| 
tsong, tol, pare, men, dude (two time, two time) 

e|-----------------------------------------------| 
B|-10h12-12-10-8---------------------------------| 
G|----------------9--7v--------------------------| 
D|-----------------------------------------------| 
A|-----------------------------------------------| 
D|-----------------------------------------------| 
tsong, tol, pare, men, dude 

gotta be astig for life 


Ending (alam ko mjo mali. haha) 

wohoooo.... 
e|-----------------------------------------------| 
B|-----------------------------------------------| 
G|-/9-7--------------9--7v-----------------------| 
D--------5h7p5-----------------------------------| 
A|-----------------------------------------------| 
D|-----------------------------------------------| 

 
		  

Full key step upFull key step up
Half key step upHalf key step up
Half key step downHalf key step down
Full key step downFull key step down
hide glossary

See also:

tabs Ira! - Poço de Sensibilidade (Solo - Acustico Mtv) tabs Deep Purple - Smoke On The Water tabs Deep Purple - Smoke on the water (intro) tabs Ira! - Eu Quero Sempre Mais (Com Pitty, intro) tabs Deep Purple - Smoke on the Water (ver. 2) tabs Deep Purple - Knocking At Your Back Door
e-chords

Other versions:

tabs Giniling Festival - Astig
auto scroll beats size up size down change color hide chords drawings
tab show chords e-chords YouTube Clip e-chords hide all tabs e-chords go to top tab

share