Gillian Welch

Revelator

Gillian Welch

tabs Easy easy

save to print version add songbook text version e-mail correct tuner
chordsukulelecavacokeyboardtabbassdrumsharmonicaflute Guitar Pro
close

there isn't a video lesson for this song

chords

Revelator

	  		CAPO ON 4th 
 
 
Notes: the solo sections are all fingerpicked, and any note  
in parenthesis () means that it is played very softly, or that  
it is ringing througout the next few phrases. 
 
Intro: 
 
Let ring>> 
    Em                                   C 
E:--------0------------------0-------|--------------------------0-------| 
B:--------0------------------0---0---|--------1-----------------1---0---| 
G:--------0------------------0---0---|--------0-------0---0-----0---0---| 
D:----2---2--------2---2-----2---0---|2--(2)--2---2---2---0-h2--2---0---| 
A:2---2-------(2)--2---0-h2----------|3-----------3---3-----------------| 
E:0-----------(0)--------------------|----------------------------------| 
 
    A5                               C/A 
:--------------------------------|--------------------------------| 
:--------0-----------------------|--------0-------0-------0---0---| 
:--------2-----------2-------2---|--------2-------2-------2---0---| 
:----2---------------2-------2---|----2-----------2-------2---0---| 
:0-----------------------0-------|3-------------------0-----------| 
:------------0---3---------------|------------3-------------------| 
 
(Repeats thoughout verses, with variation) 
 
 
 
Intro solo: 
 
:----------------(0)---(0)---(0)---|0----0---0----------------------------| 
:----------------------------------|3-h5-----5-p3-----3-------------------| 
:----------------------------------|--------------4---4-h5-p4---(4)-------| 
:----------------------------------|-----------------------------5--------| 
:----------------------------------|--------------------------------------| 
:----------------------------------|--------------------------------------| 
 
 
:------------------------------------| 
:------------------------------------| 
:------------------------------------| 
:----4-h5-p4---0---0-h2--------------| 
:------------------------------------| 
:------------------------------------| 
 
 
1st Solo 
 
:(0)-------------------------------|-----0---0--------0---0--------------| 
:-3--/5------------------3---------|3h-5---------3h-5--------------------| 
:-----------------2---/4-----------|-------------------------2-/4---2---| 
:----------------------------------|-------------------------------------| 
:----------------------------------|-------------------------------------| 
:----------------------------------|-------------------------------------| 
 
 
:-----------------------------------|--------------------------------| 
:-----3-----------------------------|--------------------------------| 
:/4---------------2p-0------0-------|--------------------------------| 
:----------------------0h-2-----2---|2-------2---0-----0-2-0-2---0---| 
:-----------------------------------|--------------------------------| 
:-----------------------------------|--------------------------------| 
 
 
:------------------------------0----|-----3---4-b5----3-5-3--------------| 
:-------------------------3-h5------|3-h5-------------------5-3----------| 
:-----------------0-h2-/4-----------|---------------------------5---4-h5-| 
:0h2--0-h2----0-h2------------------|------------------------------------| 
:-----------------------------------|------------------------------------| 
:-----------------------------------|------------------------------------| 
 
 
:---------------------------------|------------------------------3--------| 
:---------------------------------|-----------------------------(0)-------| 
:4--------------------------------|---------(0)-------(0)-----------------| 
:----5---4-h5-----5---4---4---0---|0-h2------2--------(2)-----------------| 
:---------------------------------|---------------------------------------| 
:---------------------------------|---------------------------------------| 
 
 
:-3---------3---------3--------3-------| 
:(0)-------(0)-------(0)-------0-------| 
:--------------------------------------| 
:--------------------------------------| 
:--------------------------------------| 
:--------------------------------------| 
 
 
 
 
2nd Solo 
 
 
 
:-----------(0)---(0)---(0)---(0)---|(0)---------------------------------| 
:------------5-----5-----5-----5----|-5-------------3-----------3-------| 
:-----------------------------------|----------/4---------------4---2---| 
:-----------------------------------|------------------------------------| 
:-----------------------------------|------------------------------------| 
:-----------------------------------|------------------------------------| 
 
 
:----------------------------------|--------------------------------------| 
:0----3-------5-----------5-3-0----|0-----3---0-----0-------0-------------| 
:2/4--------------------------4-2-|2-/4------4-/2--0-------2---0---0-----| 
:----------------------------------|----------------------------0h2-0h2---| 
:----------------------------------|--------------------------------------| 
:----------------------------------|--------------------------------------| 
 
 
:----------------------------0--------|0----0---3---0---0----------------| 
:---------------------0------3-h5-----|3h-5---5---5---5-----3---0--------| 
:--------0------0-----0-h2---4--------|-------------------------4/-2-0---| 
:--------2------0-h2------------------|----------------------------------| 
:-------------------------------------|----------------------------------| 
:-------------------------------------|----------------------------------| 
 
 
:-------------------------------------|-----------------3--------3---3---| 
:---------------------------------0-3-|/5------5-----3-(5)---5---5-3-5-3-| 
:2---2-h4-p0---------------0-2-/4-----|--------------------------4---4---| 
:------------0---2----0-h2------------|----------------------------------| 
:-------------------------------------|----------------------------------| 
:-------------------------------------|----------------------------------| 
 
 
:4-b5--4-b5--3-------------------------|--------------------------------| 
:--------------5-x-3---------------5---|----3---------------------------| 
:--------------------4---2---2-/4------|----2---------------------------| 
:----------------------5---------------|--------------------------------| 
:--------------------------------------|--------------------------------| 
:--------------------------------------|--------------------------------| 
 
 
 
Last Solo (outro) 
 
 
:-----------------------(0)---(0)---|---0-------------------0---0---0---| 
:------------------------5-----5----|3-h5----------------3-h5---3---3---| 
:-----------------------------------|-----------------------------------| 
:-----------------------------------|-----------------------------------| 
:-----------------------------------|-----------------------------------| 
:-----------------------------------|-----------------------------------| 
 
 
:-------------------0-----(0)-----|--------------------------------------| 
:-------------------3------3------|3---------0--------------------------| 
:-------------------4------4------|4-2--0----0-h2-----------------------| 
:---------------------------------|----------(0)(2)----------------------| 
:---------------------------------|--------------------------------------| 
:---------------------------------|--------------------------------------| 
 
 
:------------------------------------|-----------------------0---0---0---| 
:-----0--------0-----0---0---0---0---|(0)----3---5-----------5---5---5---| 
:-----0-h2-----0-h2--2---2---2---2---|-2-/4------------------------------| 
:-----0-h2-----0-h2--2---2---2---2---|-----------------------------------| 
:------------------------------------|-----------------------------------| 
:------------------------------------|-----------------------------------| 
 
 
:0-----------------------------------|-----------------------------------| 
:0--------0--------------------------|-----------------------------------| 
:4---/2---2---/0---0--------0--------|-0-h2------2-------2-------2-------| 
:------------------5---/2---2---/0---|-0-h2----------2-------2-------2---| 
:------------------------------------|(0)--------------------------------| 
:------------------------------------|-----------------------------------| 
 
 
:--------------------------------| 
:--------------------------------| 
:4-------------------------------| 
:--------------------------------| 
:--------------------------------| 
:--------------------------------| 
		  

Full key step upFull key step up
Half key step upHalf key step up
Half key step downHalf key step down
Full key step downFull key step down
hide glossary

See also:

tabs Theme Songs - Mario Bros. tabs Hot Apple Pie - Hillbillies tabs James Taylor - Youve Got A Friend (ver. 2) tabs Kenny Chesney - I Go Back tabs Garth Brooks - If Tomorrow Never Comes.(ver.2) tabs Alan Jackson - Chattahoochee Correct
e-chords

Other versions:

tabs Gillian Welch - Revelator tabs Screaming Trees - Revelator
auto scroll beats size up size down change color hide chords drawings
tab show chords e-chords YouTube Clip e-chords hide all tabs e-chords go to top tab

share