Gerling

The Deer In You

Gerling

tabs

save to print version add songbook text version e-mail correct tuner
chordsukulelecavacokeyboardtabbassdrumsharmonicaflute Guitar Pro
close

there isn't a video lesson for this song

chords

The Deer In You

	  		Submitter: Sam Frost -  
comments and criticism to [email protected] 
  
e----------------------------------------------------------------- 
B--------------------------------------------------14-12-10-9----- 
G-9--9--9--9----------------------11-11----13-13------------------ 
D--------------------------------------------------11-9--7--6----- 
A-7--7--7--7----------------------9--9-----11-11---0--0--0--0----- 
E-0--0--0--0----------------------0--0-----0--0------------------- 
 
 
  Well you know ive been waiting  for so   long 
  Cos the underground everyday is getting  strong 
 
 
e----------------------------------------- 
B-9-------------------7--5---------------- 
G-----------------------------------(9)--- 
D-6-------------------4--2---------------- 
A-0-------------------0--0----------(7)--- 
E-----------------------------------(0)--- 
 
 
  Are you going away 
  Are you going away from me - is it true?  
 
 
e----------------------------------------- 
B----------------------------------------- 
G----------------------------------------- 
D-7------------------9-------------------- 
A----------------------------------------- 
E-5------------------7-------------------- 
 
 
  We're all fighting against the man... 
 
 
e----------------------------------------- 
B----------------------------------------- 
G-----9-----------------------6----------- 
D----------------------------------------- 
A-----7-----------------------4----------- 
E----------------------------------------- 
 
 
  The big brotherhood and the masterplan 
 
 
e----------------------------------------- 
B----------------------------------------- 
G----------------------------------------- 
D-7------------------9-------------------- 
A----------------------------------------- 
E-5------------------7-------------------- 
 
 
  We're all fighting against that same evil man...t the feeling i could leave you  
on the interstate  

		  

See also:

tabs Hillsong Music Australia - In the Mystery tabs The Beautiful Girls - High Rolling tabs Behind Crimson Eyes - This Is The End tabs You Am I - Please don`t ask me to smile tabs Colin Hay - I Just Don't Think I'll Ever Get Over You tabs INXS - prety vegas
e-chords

Other versions:

tabs Gerling - The Deer In You
auto scroll beats size up size down change color hide chords drawings
tab show chords e-chords YouTube Clip e-chords hide all tabs e-chords go to top tab

share