George Harrison

home > George Harrison

Something Tab

George Harrison

Difficulty: ExpertExpert

by Daniellopes

tuner correct add songbook print version text version save to e-mail
chordsukulelecavacokeyboardtabbassdrumsharmonicsflute Guitar Pro
chords

Something

  		Intr. 

      F           Eb  G  C 
E|-----5--8--7--5--6--7--8----------|  
B|----------------------------------|  
G|----------------------------------|  
A|----------------------------------|  
D|----------------------------------|  
E|----------------------------------|  

2ª parte 

      F        Eb   G   A 
E|-----5--8--7--5--6--7--9----------|  
B|----------------------------------|  
G|----------------------------------|  
A|----------------------------------|  
D|----------------------------------|  
E|----------------------------------|  


3ª parte 

    C          Cmaj7                 C7 
E|--------------------------------------------------|  
B|-----5--8--5-----5--10--10--8--5-------5--8--10--8|  
G|--7-----------7--------------------7--------------|  
A|--------------------------------------------------|  
D|--------------------------------------------------|  
E|--------------------------------------------------|  

                           F          C    D         
E|------------------12--8--5--5--8-8--3-3-----------|  
B|--11--13--15--13----------------------------0----0|  
G|------------------------------------------2----2--|  
A|--------------------------------------------------|  
D|--------------------------------------------------| 
E|--------------------------------------------------| 

            G   
E|-----------5--3-5-3-5-3-0-0--10-8-7-12--10--8-----|  
B|---3--3-------------------------------------------|  
G|--------------------------------------------------|  
A|--------------------------------------------------|  
D|--------------------------------------------------| 
E|--------------------------------------------------| 

    Am                Am7+               Am7 
E|--0-----0-----------0------0-----------0-----0----|  
B|-----3-----3--1--------3-----3--1---------3-----3-|  
G|--------------------------------------------------|  
A|--------------------------------------------------|  
D|--------------------------------------------------| 
E|--------------------------------------------------| 

          D7/9             F         Eb G  C 
E-----0--3--12-10-8--10-8--5--8-7--5-6--7--8--------|  
B|-1------------------------------------------------|  
G|--------------------------------------------------|  
A|--------------------------------------------------|  
D|--------------------------------------------------| 
E|--------------------------------------------------| 


1ª parte 
      F           Eb  G  C 
E|-----5--8--7--5--6--7--8----------|  
B|----------------------------------|  
G|----------------------------------|  
A|----------------------------------|  
D|----------------------------------|  
E|----------------------------------|  

2ª parte 

      F        Eb   G   A 
E|-----5--8--7--5--6--7--9----------|  
B|----------------------------------|  
G|----------------------------------|  
A|----------------------------------|  
D|----------------------------------|  
E|----------------------------------|  


	  

Full key step upFull key step up
Half key step upHalf key step up
Half key step downHalf key step down
Full key step downFull key step down
Search Paypal
auto scroll beats size up size down change color hide chords drawings
tab show chords e-chords YouTube Clip e-chords hide all tabs e-chords go to top tab