George Harrison

home > George Harrison

Red Lady Too Tab

George Harrison

Difficulty: nolevelnolevel

by fernsantana

tuner correct add songbook print version text version save to e-mail
chordsukulelecavacokeyboardtabbassdrumsharmonicsflute Guitar Pro
chords

Red Lady Too

  		 
1. MELODY (harpsichord) 
--------------------------------------------------------------------------- 

PART 1 
  Cm                        Gm 
  1 + 2 + 3 +  1 + 2 + 3 +  1 + 2 + 3 +  1 + 2 + 3 +  
e|----------3-|------------|------------|------------| 
B|------4-6---|6---4---6---|------------|3-----------| 
G|--3-5-------|------------|----3---5---|------------| 
D|5-----------|------------|5-----------|------------| 
A|------------|------------|------------|------------| 
E|------------|------------|------------|------------| 
  Dm                        G 
  1 + 2 + 3 +  1 + 2 + 3 +  1 + 2 + 3 +  1 + 2 + 3 +  
e|------------|------------|------------|------------| 
B|----5-6-5---|5---6-------|------------|------------| 
G|--7-------7-|--------7---|----4---5---|3-----------| 
D|7-----------|------------|5-----------|------------| 
A|------------|------------|------------|------------| 
E|------------|------------|------------|------------| 
  Cm                        Gm 
  1 + 2 + 3 +  1 + 2 + 3 +  1 + 2 + 3 +  1 + 2 + 3 +  
e|----------3-|------------|------------|------------| 
B|------4-6---|6---4---6---|------------|3-----------| 
G|--3-5-------|------------|----3---5---|------------| 
D|5-----------|------------|5-----------|------------| 
A|------------|------------|------------|------------| 
E|------------|------------|------------|------------| 
  Dm                        G 
  1 + 2 + 3 +  1 + 2 + 3 +  1 + 2 + 3 +  1 + 2 + 3 +  
e|------------|------------|------------|------------| 
B|----8---6---|5-------6---|------------|3-----------| 
G|------------|----7-------|----4---5---|------------| 
D|7----7----7-|------------|5-----------|------------| 
A|------------|------------|------------|------------| 
E|------------|------------|------------|------------| 


PART 2 
  Bm           Bm/A         F# 
  1 + 2 + 3 +  1 + 2 + 3 +  1 + 2 + 3 +  1 + 2 + 3 +  
e|------------|------------|------------|------------| 
B|----2-----2-|----2-----2-|----2-----2-|----2-----2-| 
G|--4-----4---|--4-----4---|--3-----3---|--3-----3---| 
D|4-----4-----|4-----4-----|4-----4-----|4-----4-----| 
A|------------|------------|------------|------------| 
E|------------|------------|------------|------------| 
  Bbm         Bbm/Db      A 
  1 + 2 + 3 +  1 + 2 + 3 +  1 + 2 + 3 +  1 + 2 + 3 +  
e|------------|------------|------------|------------| 
B|----2-----2-|----2-----2-|----2-----2-|----2-----2-| 
G|--3-----3---|--3-----3---|--2-----2---|--2-----2---| 
D|3-----3-----|3-----3-----|2-----2-----|2-----2-----| 
A|------------|------------|------------|------------| 
E|------------|------------|------------|------------| 
  A6-5                       Absus4 
  1 + 2 + 3 +  1 + 2 + 3 +  1 + 2 + 3 +  1 + 2 + 3 +  
e|------------|------------|------------|------------| 
B|----2-----2-|----2-----2-|----2-----2-|----2-----2-| 
G|--2-----2---|--2-----2---|--1-----1---|--1-----1---| 
D|1-----1-----|1-----1-----|1-----1-----|1-----1-----| 
A|------------|------------|------------|------------| 
E|------------|------------|------------|------------| 
  Eb7/G        Eb7          Ebdim/Gb 
  1 + 2 + 3 +  1 + 2 + 3 +  1 + 2 + 3 +  1 + 2 + 3 +  
e|------------|------------|------------|------------| 
B|----2-----2-|----2-----2-|------------|------------| 
G|--0-----0---|--0-----0---|----5-----5-|--------5---| 
D|1-----1-----|1-----1-----|--4-----4---|----4-------| 
A|------------|------------|6-----6-----|6-----------| 
E|------------|------------|------------|------------| 
  Ebdim                     N.C. 
  1 + 2 + 3 +  1 + 2 + 3 +  1 + 2 + 3 +   
e|------------|------------|------------| 
B|7-----------|------------|------------| 
G|------------|------------|------------| 
D|------------|------------|------------| 
A|------------|------------|------------| 
E|------------|------------|------------| 


PART 1 (variation) 
  Cm                        Gm 
  1 + 2 + 3 +  1 + 2 + 3 +  1 + 2 + 3 +  1 + 2 + 3 +  
e|------------|----3-------|------------|------------| 
B|------------|4-6---------|------------|3-----------| 
G|--------3-5-|------------|----3---5---|------------| 
D|5-----------|------------|5-----------|------------| 
A|------------|------------|------------|------------| 
E|------------|------------|------------|------------| 
  Dm                        G 
  1 + 2 + 3 +  1 + 2 + 3 +  1 + 2 + 3 +  1 + 2 + 3 +  
e|------------|------------|------------|------------| 
B|--------8---|6---5-------|----0--h3---|------------| 
G|------------|--------7---|0-----------|3-----------| 
D|7---------7-|------------|------------|------------| 
A|------------|------------|------------|------------| 
E|------------|------------|------------|------------| 
  Cm                        Gm 
  1 + 2 + 3 +  1 + 2 + 3 +  1 + 2 + 3 +  1 + 2 + 3 +  
e|----------3-|------------|------------|------------| 
B|------4-6---|6---4---6---|------------|3-----------| 
G|--3-5-------|------------|----3---5---|------------| 
D|5-----------|------------|5-----------|------------| 
A|------------|------------|------------|------------| 
E|------------|------------|------------|------------| 
  Dm                        G 
  1 + 2 + 3 +  1 + 2 + 3 +  1 + 2 + 3 +  1 + 2 + 3 +  
e|------------|------------|------------|------------| 
B|------8-6-5-|----5---6---|------------|3-----------| 
G|------------|7-----------|----4---5---|------------| 
D|7-----------|------------|5-----------|------------| 
A|------------|------------|------------|------------| 
E|------------|------------|------------|------------| 

PART 2 (+ coda) 
  Bm           Bm/A         F# 
  1 + 2 + 3 +  1 + 2 + 3 +  1 + 2 + 3 +  1 + 2 + 3 +  
e|------------|------------|------------|------------| 
B|----2-----2-|----2-----2-|----2-----2-|----2-----2-| 
G|--4-----4---|--4-----4---|--3-----3---|--3-----3---| 
D|4-----4-----|4-----4-----|4-----4-----|4-----4-----| 
A|------------|------------|------------|------------| 
E|------------|------------|------------|------------| 
  Bbm         Bbm/Db      A 
  1 + 2 + 3 +  1 + 2 + 3 +  1 + 2 + 3 +  1 + 2 + 3 +  
e|------------|------------|------------|------------| 
B|----2-----2-|----2-----2-|----2-----2-|----2-----2-| 
G|--3-----3---|--3-----3---|--2-----2---|--2-----2---| 
D|3-----3-----|3-----3-----|2-----2-----|2-----2-----| 
A|------------|------------|------------|------------| 
E|------------|------------|------------|------------| 
  A6-5                       Absus4 
  1 + 2 + 3 +  1 + 2 + 3 +  1 + 2 + 3 +  1 + 2 + 3 +  
e|------------|------------|------------|------------| 
B|----2-----2-|----2-----2-|----2-----2-|----2-----2-| 
G|--2-----2---|--2-----2---|--1-----1---|--1-----1---| 
D|1-----1-----|1-----1-----|1-----1-----|1-----1-----| 
A|------------|------------|------------|------------| 
E|------------|------------|------------|------------| 
  Eb7/G        Eb7          Ebdim/Gb 
  1 + 2 + 3 +  1 + 2 + 3 +  1 + 2 + 3 +  1 + 2 + 3 +  
e|------------|------------|------------|------------| 
B|----2-----2-|----2-----2-|------------|------------| 
G|--0-----0---|--0-----0---|----5-----5-|----5-----5-| 
D|1-----1-----|1-----1-----|--4-----4---|--4-----4---| 
A|------------|------------|6-----6-----|6-----6-----| 
E|------------|------------|------------|------------| 
  Ebdim        N.C. 
  1 + 2 + 3 +  1 + 2 + 3 +  1 + 2 + 3 +   
e|------------|------------|------------| 
B|------------|------------|7-----------| 
G|----5-----5-|--------5---|----5-------| 
D|--4-----4---|----4-------|--------4---| 
A|6-----6-----|6-----------|------------| 
E|------------|------------|------------| 
               (repeat last two bars and fade) 


--------------------------------------------------------------------------- 
WALKING LINE (piano, repeated one time)  
--------------------------------------------------------------------------- 

PART 1  
  Cm                        Gm 
  1 + 2 + 3 +  1 + 2 + 3 +  1 + 2 + 3 +  1 + 2 + 3 +  
e|------------|------------|------------|------------| 
B|1-----------|------------|------------|------------| 
G|----3---1---|0-----------|0-----------|------------| 
D|------------|----3---1-3-|----3---1---|0-----------| 
A|------------|------------|------------|----3---1-3-| 
E|------------|------------|------------|------------| 
  Dm                        Gm 
  1 + 2 + 3 +  1 + 2 + 3 +  1 + 2 + 3 +  1 + 2 + 3 +  
e|------------|------------|------------|------------| 
B|------------|------------|------------|------------| 
G|------------|------------|------------|------------| 
D|0-----------|------------|------------|5-----------| 
A|----3---1---|0-----------|------------|------------| 
E|------------|----3---1---|3-----------|------------| 
  Cm                        Gm 
  1 + 2 + 3 +  1 + 2 + 3 +  1 + 2 + 3 +  1 + 2 + 3 +  
e|------------|------------|------------|------------| 
B|1-----------|------------|------------|------------| 
G|----3---1---|0-----------|0-----------|------------| 
D|------------|----3---1-3-|----3---1---|0-----------| 
A|------------|------------|------------|----3---1-3-| 
E|------------|------------|------------|------------| 
  Dm                        G 
  1 + 2 + 3 +  1 + 2 + 3 +  1 + 2 + 3 +  1 + 2 + 3 +  
e|------------|------------|------------|------------| 
B|------------|------------|------------|------------| 
G|------------|------------|------------|------------| 
D|0-----------|------------|------------|5-----------| 
A|----3---1---|0-----------|------------|------------| 
E|------------|----3---1---|3-----------|------------| 


PART 2 
  Bm           Bm/A         F# 
  1 + 2 + 3 +  1 + 2 + 3 +  1 + 2 + 3 +  1 + 2 + 3 +  
e|------------|------------|------------|------------| 
B|------------|------------|------------|------------| 
G|------------|------------|------------|------------| 
D|------------|------------|------------|------------| 
A|2-----------|0-----------|------------|4---------2-| 
E|------------|----------3-|2-----------|------------| 
  Bbm         Bbm/Db      A 
  1 + 2 + 3 +  1 + 2 + 3 +  1 + 2 + 3 +  1 + 2 + 3 +  
e|------------|------------|------------|------------| 
B|------------|------------|------------|------------| 
G|------------|------------|------------|------------| 
D|------------|------------|------------|------------| 
A|1-----------|4-----------|0-----------|0-----------| 
E|------------|------------|------------|------------| 
  A6-5                       Absus4 
  1 + 2 + 3 +  1 + 2 + 3 +  1 + 2 + 3 +  1 + 2 + 3 +  
e|------------|------------|------------|------------| 
B|------------|------------|------------|------------| 
G|------------|------------|------------|------------| 
D|------------|7-----------|6-----------|------------| 
A|0-----------|0-----------|------------|6-----------| 
E|------------|------------|------------|------------| 
  Eb7/G        Eb7          Ebdim/Gb 
  1 + 2 + 3 +  1 + 2 + 3 +  1 + 2 + 3 +  1 + 2 + 3 +  
e|------------|------------|------------|------------| 
B|------------|------------|------------|------------| 
G|------------|------------|------------|------------| 
D|5-----------|------------|4-----------|------------| 
A|------------|6-----------|------------|6-----------| 
E|------------|------------|------------|------------| 
  Ebdim                     N.C. 
  1 + 2 + 3 +  1 + 2 + 3 +  1 + 2 + 3 +   
e|------------|------------|------------| 
B|------------|------------|------------| 
G|------------|------------|------------| 
D|------------|------------|------------| 
A|6-----------|------------|------------| 
E|------------|------------|------------| 


 
	  

Full key step upFull key step up
Half key step upHalf key step up
Half key step downHalf key step down
Full key step downFull key step down
Search Paypal
auto scroll beats size up size down change color hide chords drawings
tab show chords e-chords YouTube Clip e-chords hide all tabs e-chords go to top tab