George Harrison

home > George Harrison

Marwa Blues Tab

George Harrison

Difficulty: BeginnerBeginner

by educastilho

tuner correct add songbook print version text version save to e-mail
chordsukulelecavacokeyboardtabbassdrumsharmonicsflute Guitar Pro
chords

Marwa Blues

  		

 00:06                 s  s                                             s 
e|---s----12-12-12-|-12\14/12----|---s-----------s---12---s---|-12-14-14\17-14-12----| 
B|-12\14-----------|----------13-|-12\-10---12-12\14----12\14-|-------------------13-| 
G|-----------------|-------------|----------------------------|----------------------| 
D|-----------------|-------------|----------------------------|----------------------| 
A|-----------------|-------------|----------------------------|----------------------| 
E|-----------------|-------------|----------------------------|----------------------| 

00:27                           GUITAR 1 
e|--------s--s--s---|---s--s---|--s------------s------------------| 
B|-12---12\13/12\10-|-10\12/10-|-8\10--10-12-12\13-------------10-| 
G|------------------|----------|----------------------------------| 
D|------------------|----------|----------------------------------| 
A|------------------|----------|----------------------------------| 
E|------------------|----------|----------------------------------| 
                               |                                  | 
                               |GUITAR 2                          | 
e|-----------------------------|-----------s--s--s---s--s---------| 
B|-----------------------------|---------12\13/12\13-\12/10-------| 
G|-----------------------------|----------------------------------| 
D|-----------------------------|----------------------------------| 
A|-----------------------------|----------------------------------| 
E|-----------------------------|----------------------------------| 


00:40 
e|-------------s-------------------------------------| 
B|-10-10-10--12\14---14-14-14-14-14-14--14-14-14~~~~-| 
G|---------------------------------------------------| 
D|---------------------------------------------------| 
A|---------------------------------------------------| 
E|---------------------------------------------------| 

00:53                 s          s 
e|---s---12-12-12-|-12\14-12-|-14\17-14-12----|----------s--s---------s---| 
B|-12\14----------|----------|-------------13-|-13-13--12\13/12-10--12\10-| 
G|----------------|----------|----------------|---------------------------| 
D|----------------|----------|----------------|---------------------------| 
A|----------------|----------|----------------|---------------------------| 
E|----------------|----------|----------------|---------------------------| 

01:04         s     s                s      s          s  s             s 
e|---s---12-12\14-14\17-|-12-14-17-17\19--19\22-21-|-19\21/20-|-17-17-15\17-| 
B|-12\14----------------|--------------------------|----------|-------------| 
G|----------------------|--------------------------|----------|-------------| 
D|----------------------|--------------------------|----------|-------------| 
A|----------------------|--------------------------|----------|-------------| 
E|----------------------|--------------------------|----------|-------------| 

01:20 
     s                             s        s     s     s 
e|-15\17--17-17-17-|-17-17-17-17-17\12-12-12\9-9-9\5-5-5\0--s---------------| 
B|-----------------|---------------------------------------4\5-5-5----------| 
G|-----------------|-----------------------------------------------6-6------| 
D|-----------------|----------------------------------------------------7-7-| 
A|-----------------|--------------------------------------------------------| 
E|-----------------|--------------------------------------------------------| 


01:39                      s       s  s    01:47                               s 
e|---s----------|-12-14--14\17-|-17\19/17-|---s-------------------|-17-17-19-19\21-| 
B|-12\14--14-14-|--------------|----------|-12\14-12-10--s--------|----------------| 
G|--------------|--------------|----------|-------------9\11-9----|----------------| 
D|--------------|--------------|----------|--------------------10-|----------------| 
A|--------------|--------------|----------|-----------------------|----------------| 
E|--------------|--------------|----------|-----------------------|----------------| 

                s           s       s             s 
e|----------|-19\21-19-17-17\20-|-19\21-20-|-17-17\----| 
B|----s--s--|-------------------|----------|--------10-| 
G|-9-9\11/9-|-------------------|----------|-----------| 
D|----------|-------------------|----------|-----------| 
A|----------|-------------------|----------|-----------| 
E|----------|-------------------|----------|-----------| 


02:05                      |------this is 2 guitars I recon-----|  s 
e|--------10-12--13-13-|----s------------------|----s---|-12-13--13\15-|----------| 
B|--s--10--------------|-8-8\10-------s--s-----|-8-8\10-|--------------|---s---14-| 
G|-7\9-----------------|--------10--10\12/9-10-|--------|--------------|-12\14----| 
D|---------------------|-----------------------|--------|--------------|----------| 
A|---------------------|-----------------------|--------|--------------|----------| 
E|---------------------|-----------------------|--------|--------------|----------| 

                   02:25     
                   GUITAR 1               s  s      s               s  s 
e|-------12--10-9-|-----s----12-12-|-12-12\14/12--14\17-|-12----|-20\21/19-| 
B|---s------------|---12\14--------|--------------------|----13-|----------| 
G|-12\14----------|----------------|--------------------|-------|----------| 
D|----------------|----------------|--------------------|-------|----------| 
A|----------------|----------------|--------------------|-------|----------| 
E|----------------|----------------|--------------------|-------|----------| 
                  |                                                        | 
                  |GUITAR 2                                                | 
                  |   s                                                    | 
e|----------------|-13\15--------------------------------------------------| 
B|----------------|--------------------------------------------------------| 
G|----------------|--------------------------------------------------------| 
D|----------------|--------------------------------------------------------| 
A|----------------|--------------------------------------------------------| 
E|----------------|--------------------------------------------------------| 


  GUITAR 1                      s        s  s                  s     s                        s 
e|---s----12---s---|----12-14-14\17-19-19\22/21------21-21-|-19\22-21\17--17---17--17-17-15-15\17-| 
B|-12\14-----12\14-|-14------------------------------------|--------------------------------------| 
G|-----------------|---------------------------------------|--------------------------------------| 
D|-----------------|---------------------------------------|--------------------------------------| 
A|-----------------|---------------------------------------|--------------------------------------| 
E|-----------------|---------------------------------------|--------------------------------------| 
 |                                   | 
 |GUITAR 2                           | 
 |   s                          s    | 
e|-19\21--21--21---|-21-24-26-26\28--| 
B|-----------------|-----------------| 
G|-----------------|-----------------| 
D|-----------------|-----------------| 
A|-----------------|-----------------| 
E|-----------------|-----------------| 
  

02:58 
     s     s     s                                      s           s  
e|-15\17-15\17-15\17-|---s---12-12-12-|-12-12-17-17-|-10\12-12-12-10\12-|---s---| 
B|-------------------|-12\14----------|-------------|-------------------|-10\14-| 
G|-------------------|----------------|-------------|-------------------|-------| 
D|-------------------|----------------|-------------|-------------------|-------| 
A|-------------------|----------------|-------------|-------------------|-------| 
E|-------------------|----------------|-------------|-------------------|-------| 

03:12                            s          s           s    03:24 
e|---s-----12-12-12-|---s---12-14\12----|-19\20-19-17-17\15-|---s------|---s---12-14-12-| 
B|-12\14------------|-12\14----------13-|-------------------|-12\13-12-|-12\14----------| 
G|------------------|-------------------|-------------------|----------|----------------| 
D|------------------|-------------------|-------------------|----------|----------------| 
A|------------------|-------------------|-------------------|----------|----------------| 
E|------------------|-------------------|-------------------|----------|----------------| 
   start fading out............. 
                 s             s  s       s  
e|-12-14-17-19-19\21-20-|-12-12\14/12-|-19\21-20-|-17-17-17-| 
B|----------------------|-------------|----------|----------| 
G|----------------------|-------------|----------|----------| 
D|----------------------|-------------|----------|----------| 
A|----------------------|-------------|----------|----------| 
E|----------------------|-------------|----------|----------| 
                                                            |   
                                                            |GUITAR 2 
e|----------------------------------------------------------|----------------------------| 
B|----------------------------------------------------------|--s--5-5--s--5-5 and so on--| 
G|----------------------------------------------------------|-3\5-----3\5----------------| 
D|----------------------------------------------------------|----------------------------| 
A|----------------------------------------------------------|----------------------------| 
E|----------------------------------------------------------|----------------------------| 



ENJOY.......... 
	  

Search Paypal
auto scroll beats size up size down change color hide chords drawings
tab show chords e-chords YouTube Clip e-chords hide all tabs e-chords go to top tab