George Harrison

home > George Harrison

Let It Down Tab

George Harrison

Difficulty: nolevelnolevel

by IronPower4Ever

tuner correct add songbook print version text version save to e-mail
chordsukulelecavacokeyboardtabbassdrumsharmonicsflute Guitar Pro
chords

Let It Down

  		


      INTRO 
    00:00 

    E                               E7 
  e|-------------------------------|-------------------------------| 
  B|-------------------------------|-------------------------------| 
  G|--------9-------9-9-9\---------|----7-7-7\------7-7-7\---------| 
  D|--------9-------9-9-9\---------|----9-9-9\------9-9-9\---------| 
  A|----7--------------------------|-------------------------------| 
  E|0-------------0----------------|--0-----------0----------------| 




    F#              F               E7 
  e|-------------------------------|-------------------------------| 
  B|-------------------------------|-------------------------------| 
  G|--------3---3-----2-2---2-----2|--------1----------------------| 
  D|4---4---4---4-4---3-3---3---3--|--------0---0---------------2--| 
  A|4---4---4-----4---3-3---3---3--|--------2---2---------------2--| 
  E|2---2--------------------------|0---0---0---0-0-0-0-0-0-0-0-0--| 




    E                               E7 
  e|-------------------------------|-------------------------------| 
  B|-------------------------------|-------------------------------| 
  G|--------9-------9-9-9\---------|----7-7-7\------7-7-7\---------| 
  D|----------------9-9-9\---------|----9-9-9\------9-9-9\---------| 
  A|----7--------------------------|-------------------------------| 
  E|0-------------0----------------|--0-----------0----------------| 




    F#              F               E7 
  e|-------------(6)--------0------|-------------------------------| 
  B|--------2----------------------|-------------------------------| 
  G|--------3-----------2---2---2--|-------------------------------| 
  D|4---4---4---------3-3---3---2--|-------------------------------| 
  A|4---4---4---------3-3---3---3--|-------------------------------| 
  E|2---2-------------1------------|0------------------------------| 




    Emaj7                                               Amaj7 
  e|--------4---4-4---4-4----------|--------4-----4---/-9-------9\-| 
  B|--------4---4-4---4-4----------|--------4-----4---/-9-------9\-| 
  G|--------4---4-4---4-4----------|----4---4-----4---/-9-------9\-| 
  D|--------2---2-2---2-2----------|2---2---2-----2---/-7-------7\-| 
  A|----2--------------------------|2------------------------------| 
  E|0------------------------------|0------------------------------| 




    Emaj7                                               Amaj7 
  e|--------4-----4-----4----------|--------4-----4-----9----\-----| 
  B|--------4-----4-----4----------|--------4-----4-----9----\-----| 
  G(4)------4-----4-----4----------|----4---4-----4-----9----\-----| 
  D|----2---2-----2-----2----------|----2---2-----2-----7----\-----| 
  A|-------------------------------|-------------------------------| 
  E|-------------------------------|0------------------------------| 




    VERSE 
    00:41 

    Emaj7 
  e|-------------------------------|4---4---4-----4-----4----------| 
  B|-------------------------------|4---4---4-----4-----4----------| 
  G|4-------4-------4-------4------|4---4---4-----4-----4-----4----| 
  D|2---------------2--------------|--------------------2----------| 
  A|2---------------2--------------|-------------------------------| 
  E|0------------------------------|-------------------------------| 
            Though  another                                   I can 
              you         chair                                   feel 
                sit 
                  in 


    Csus2                       Emaj7 
  e|3---------------------------4--|----------------4---4---4------| 
  B|3-------3-------3-----3-----4--|------------4---4---4---4------| 
  G|5-------5-------5-----5-5---4--|------------4---4---4---4---4--| 
  D|5-------5-------5-----5-----2--|------------2---------------4--| 
  A|3-------3-------3-----3--------|----------------------------2--| 
  E|-------------------------------|-------------------------------| 
                            you here 




  e|4-------4---------------4-4---4|--------------4-----4-----4----| 
  B|4-------4-------4-----4-4-4-4--|--------4-----4-----4-----4----| 
  G|4-------4-------4-----4---4-4--|--------4-----4-----4-----4-4--| 
  D|2-------2-------2--------------|--------2-----2-----2-----2----| 
  A|-------------------------------|----2---2----------------------| 
  E|-------------------------------|0---0--------------------------| 
            Looking don't                                       but 
                like    care                                      I 
                  I 



    Csus2                       Emaj7 
  e|3------------------------------|--------4----------------------| 
  B|3-------3-------3--------------|----4---4---------------4------| 
  G|5-----5-5-----5-5---5---5---4--|----4---4---4-4-4-------4-4-4--| 
  D|5-----5-5---5-5-5---5-------2--|----2---2---2-2-2-------2-2----| 
  A|3-----3-3---3-3-3---3-------2--|----2-------2-2----------------| 
  E|----------------------------0--|-------------------------------| 
    do                      I   do 



    Dsus2/A         Csus2/G         F#              F 
  e|-------------------------------|----------------1--------------| 
  B|5-------5-------3-----------3--|2---------------1---------1---1| 
  G|7---7-7-7---7-x-5---5-5-5-5-5-5|3-------3-------2-------2-2-2-2| 
  D|7---7-7-7---7-x-5---5-5-5-5-5-5|4---------------3-------3-3-3--| 
  A|5---5-5-5---5-x-3---3-3-3-3-3-3|4---------------3-------3---3--| 
  E|5---------------3--------------|2---------------1--------------| 
    Hiding      behind        I see                   Should  be 
        it all        anything                          someone looking 



    E7 
  e|-------------------------------| 
  B|-------------------------------| 
  G|1------------------------------| 
  D|0------------------------------| 
  A|2------------------------------| 
  E|0------------------------------| 
      at 
        me 


    01:20 

    Emaj7                                               Amaj7 
  e|--------4---4-4-----4-------4--|--------------------9-------9\-| 
  B|--------4---4-4---4-4--------4-|--------------------9-------9\-| 
  G|--------4---4-4---4-----------4|----4---4-----4-----9-------9\-| 
  D|--------2-----2---2------------2--------2-----------7-------7\-| 
  A|----2--------------------------|2------------------------------| 
  E|0---0--------------------------|-0-----------------------------| 




    Emaj7                                               Amaj7 
  e|--------4-----------4----------|--------4----------------------| 
  B|--------4-----4-----4----------|--------4-----4----------------| 
  G|----4---4-----4-----4----------|--------4-----4-------------9\-| 
  D|2-------2-----2-----2----------|--------2-----2-----7----------| 
  A|-------------------------------|----2---------------7----------| 
  E|-------------------------------|0-------------------0----------| 







    Chorus 
    02:14 

    E                               E7 
  e|-------------------------------|-------------------------------| 
  B|-------------------------------|-------------------------------| 
  G|----9-9-9\--------------9-9-9\7|----7-7-7-------7---7-7---7-7--| 
  D|----9-9-9\--------------9-9----|----9-9-9-------------9--------| 
  A|7------------------------------|-------------------------------| 
  E|-------------------------------|--0----------------------------| 
              Let down                        Let down 
                it                              it 



    F#              F               E7 
  e|-------------------------------|-------------------------------| 
  B|-------------------------------|-------------------------------| 
  G|3---3-3-3-3-3-3-2---2-2-2-2-2-2|1------------------------------| 
  D|4---4-4-4-4-4-4-3---3-3-3-3-3--|2---2---2---2------------------| 
  A|4---4---4-4-----3---3-3-3-3-3--|2---2---2---2------------------| 
  E|2-------2-------1--------------|----0---0---0-------0---0---0--| 
    Oooooooooooh,   ooooooh,    ooooooooh 



    E                               E7 
  e|121212\------------------------|121212-------------------------| 
  B|121212\------------------------|121212-------------------------| 
  G|--------9-9-9------------------|--------7-7-7------------------| 
  D|--------9-9-9------------------|--------9-9-9------------------| 
  A|-------------------------------|-------------------------------| 
  E|--------------0-------------0--|-------------------------------| 
              Let down                        Let all down 
                it                              it 



    F#              F               E7 
  e|-------------------------------|-------------------------------| 
  B|--------------------------1----|-------------------------------| 
  G|3-------3-3-3-3-2---2-2-2-2-2--|1------------------------------| 
  D|4-------4-4-4-4-3---3-3-3-3-3--|0------------------------------| 
  A|4-------4---4---3---3-3---3-3--|2------------------------------| 
  E|2-------1-------1---1----------|0------------------------------| 
    Oooooooooooh,   oooooooooooh,   ooooooooh 



    02:41 

    Emaj7                                               Amaj7 
  e|--------4-----4--------------4-|--------------------9--(9)--\--| 
  B|--------4---4-4---------------4|--------------------9-------\--| 
  G|----4---4---4-4-----4----------4--------4-----4-----9-------\--| 
  D|----2-------2-----2-2----------|2-------2---2-2-----7-------\--| 
  A|----2-------------2------------|------------2-2----------------| 
  E|0------------------------------|-------------------------------| 




    Emaj7                                               Amaj7 
  e|--------4-----4-------------4--|--------4---------------9-\----| 
  B|--------4-----4----------------|--------4----------------------| 
  G|--------4-----4-----4----------|--------4-----4----------------| 
  D|----2-------2-2-----2----------|--------2---------/-7----------| 
  A|2-----------2-----2------------|----2-------------/-7----------| 
  E|0------------------------------|0------------------------------| 




    VERSE 
    02:55 

    Emaj7 
  e|4-----------------------------4|--------4-----4----------------| 
  B|4-------4---------------4------4--------4----------------------| 
  G|4-------4-------4-------4---4--|4-------4---------4-4-----4-x--| 
  D|2-------2-------2-------2------|-2------2-----------2----------| 
  A|2-----------------------2------|--2----------------------------| 
  E|0------------------------------|---0---------------------------| 
            While look    and                                 I can 
                you so      divine                                feel 
                      sweetly 



    Csus2                       Emaj7 
  e|----------------3-----------4--|--------------4-----4----------| 
  B|--------3-------3-----3-----4--|--------4-----4-----4---4------| 
  G|5-------5-------5-----5\4---4--|--------4---4-4---4-4---4-4-x--| 
  D|5-------5-------------5-----2--|--------2---2-----2-2-----2-x--| 
  A|3-------3-------------------2--|-------------------------------| 
  E|----------------------------0--|-------------------------------| 
                        you     here 




  e|--------7P4-----7P4-----7-4---4|--------------4-4--------------| 
  B|4-------4-------4-----4-4-4-4--|--------4-------4---4----------| 
  G|4-----------4-------4-4-----4--|--------4-------4---4----------| 
  D|2------------------------------|--------2-------------------0--| 
  A|-------------------------------|----2--------------------------| 
  E|-------------------------------|0------------------------------| 
          See    so busy                                      and 
            your        kissing                                 I do 
              eyes          mine 



    Csus2                       Emaj7 
  e|3-------3----------------------|--------------4----------------| 
  B|3-----3-3---------3-----3------|--------4-----------------4----| 
  G|5-------5-------5---5---5---x--|4-------4-----------------4----| 
  D|5-------5-----------5---5---x--|2-------2----------------------| 
  A|3-------3-----------3---3---x--|2-------2----------------------| 
  E|-------------------------------|0------------------------------| 
                        I       do 



    Dsus2/A         Csus2/G         F#              F 
  e|----------------------0---0----|----------------0-------0------| 
  B|5---------5---5-3-----3---3-3--|--------2-------1-------1-1-1--| 
  G|7-------7-7-7-7-5-------5-----x|3-------3-------2-------2-2-2--| 
  D|7-------7-7-7---5-------------x|4---------------3---------3-3--| 
  A|5---------------3--------------|4---------------3--------------| 
  E|5---------------3--------------|2---------------1--------------| 
    Wondering it      they're                         Should  be 
          what  is        expecting                     someone looking 
                                to see 



    E7 
  e|0------------------------------| 
  B|3------------------------------| 
  G|1------------------------------| 
  D|0-------------0----------------| 
  A|2---------------2---2----------| 
  E|0---------------------------0--| 
      at 
        me 



    Chorus 
    03:34 

    E                               E7 
  e|121212\---------------------121212\----------------------------| 
  B|121212\---------------------121212\----------------------------| 
  G|--------9-9-9\-----------------|----7-7-7\----------7-7-7\-----| 
  D|--------9-9-9\-----------------|----9-9-9\----------9-9-9\-----| 
  A|-------------------------------|-------------------------------| 
  E|--------------0----------------|----------0-------0------------| 
              Let down                        Let down 
                it                              it 



    F#              F               E7 
  e|----------------------1---1----|0-------0---------------0------| 
  B|--------------------1-----1----|3-------3---------------3------| 
  G|3-------3-------2---2---2-2---1|1-------1---------------1-1----| 
  D|4-------4---4-4-3-------3------|2---------------2---2---2------| 
  A|4-----------4---3--------------|------------2---2---2----------| 
  E|2---------------1--------------|----0-------0---0---0-------0--| 
    Oooooooooooh,   oooooooooooh,   ooooooooh 



    E                               E7 
  e|121212\------------------------|----121212\--------------------| 
  B|121212\(9)---------------------|----121212\--------------------| 
  G|--------9-9-9\----------9-9-9\-|------------7-7-7\----------7\-| 
  D|--------9-9-9\----------9-9-9\-|------------9-9-9\----------9\-| 
  A|-------------------------------|-------------------------------| 
  E|-------------------------------|------------------0------------| 
              Let down                        Let all down 
                it                              it 



    F#              F               E7 
  e|-------------------------------|-------------------------------| 
  B|----------------------1---1----|3-------3-------3-------3------| 
  G|3-------3---3---2-----2-2-2-2--|1-------1---1---1-------1------| 
  D|4-------4-------3-----3-3-3--3-|2---0---2---2---2-------2------| 
  A|4-------4-------3-------3------|2-----------2------------------| 
  E|2---------------1--------------|0-------------------0-------0--| 
    Oooooooooooh,   oooooooooooh,   ooooooooh 




    04:01 

    E                               E7 
  e|121212\---------------------121212\----------------------------| 
  B|121212\---------------------121212\----------------------------| 
  G|----------9-9-9-9\-------------|------7-7-7-7\--------------7--| 
  D|----------9-9-9-9\-------------|------9-9-9-9\--------------9--| 
  A|-------------------------------|-------------------------------| 
  E|--------0----------------------|-------------------------------| 
              Let down                        Let down 
                it                              it 



    F#              F               E7 
  e|-------------------------------|-------------------------------| 
  B|-------(2)------------1---1-1--|-------------------------------| 
  G|3------(3)------2-----2-2-2-2-2|---/7-7-7\----5/7---7-7--------| 
  D|4------(4)----x-3-----3-3-3-3--|---/9-9-9\--0-7/9---9-9-7-5-2/5| 
  A|4-------4-4-4\--3--------------|-------------------------------| 
  E|2---------------1--------------|0------------------------------| 
    Oooooooooooh,   oooooooooooh,   ooooooooh 



    E                               E7 
  e|----121212\-------------------10101010\------------12---\------| 
  B|----121212\-------------------12121212\------------15B--\------| 
  G|--------------9-9-9-9----------|----------7-7-7-7\-------------| 
  D|--------------9-9-9-9----------|----------9-9-9-9\-------------| 
  A|-------------------------------|-------------------------------| 
  E|0-----------0---------------0--|--------0-------------------0--| 
              Let down                        Let down 
                it                              it 



    F#7             F7              E7 
  e|-------------------------------|0------------------------------| 
  B|2---------------1--------------|3------------------------------| 
  G|3---------------2--------------|1------------------------------| 
  D|2---------------1--------------|0------------------------------| 
  A|4---------------3--------------|2------------------------------| 
  E|2-----------2---1-----------0--|0---------------------------0--| 
    Oooooooooooh,   oooooooooooh,   ooooooooh 




    04:28 

    E                               E7 
  e|121212\-----------------121212\|------------101010\---------12-| 
  B|121212\-----------------121212\|------------121212\---------12-| 
  G|----------9-9-9-9\-------------|--7-7-7-7\----------7-7-7-----7| 
  D|----------9-9-9-9\-------------|--9-9-9-9\----------9-9-9-----9| 
  A|-------------------------------|-------------------------------| 
  E|--------0-----------0----------|0-----------------0-------0----| 
              Let down                        Let down 
                it                              it 



    F#              F               E7 
  e|-------------------------------|-------------------------------| 
  B|-------------------------------|-------------------------------| 
  G|----------------2-----------2--|----------9-----7-----9--------| 
  D|4---------------3-----------3--|-------/9-----/9----/9---\7-5--| 
  A|4-----------0---------------3--|-----------------------------\5| 
  E|2---------------------------1--|0------------------------------| 
    Oooooooooooh,   oooooooooooh,   ooooooooh 




    04:41 

    E                               E7 
  e|----121212\-----------------101010\----------------------------| 
  B|----121212\-----------------121212\----------------------------| 
  G|--------------999---9\---------|----------7-7-7-7--------------| 
  D|--------------889-8-9\---------|----------9-9-9-9--------------| 
  A|------------------7------------|-------------------------------| 
  E|------------0-----------0------|----0---------------0----------| 
              Let down                        Let down 
                it                              it 



    F#7             F               E7 
  e|----------------------0--------|-------------------------------| 
  B|----2-2-------2----------------|-------------------------------| 
  G|------3-------3-----2--------(0)-------------------------------| 
  D|2-4---2-----------3----------(2)---/9-9-7-5--------------------| 
  A|----------------3--------------|------------7\5-----7\5--------| 
  E|-------------------------------|0---------------7\5-----7-5-3B-| 
    Oooooooooooh,   oooooooooooh,   ooooooooh 



    E                               E7 
  e|----121212---------------------|101212-------------------------| 
  B|----121212---------------------|--1212-------------------------| 
  G|--------------9-9-9-9\---------|------------7-7-7\----------7-7| 
  D|--------------9-9-9-9\---------|------------9-9-9\----------9-9| 
  A|-------------------------------|-------------------------------| 
  E|0-----------0----------(0)-----|--------0----------------(0)---| 
              Let down                        Let down 
                it                              it 



    F#              F               E7 
  e|-------------------------------|-------------------------------| 
  B|-------------------------------|-------------------------------| 
  G|----3-3-3-------2-2-2-------0--|----9-----7--------------------| 
  D|----4-4-4-------3-3-3-------2--|----9--/9--\7-5----------------| 
  A|--------------x----------------|----------------7\5-5----------| 
  E|--2----------------------------|0-----------------------7-5-3B-| 
    Oooooooooooh,   oooooooooooh,   ooooooooh 




    05:08 

    E                               E7 
  e|----121212\-------------------12-------------------------------| 
  B|----121212\-------------------15B17----------------------------| 
  G|--------------9-9-9-9\---------|----------7-7-7-----------7-7--| 
  D|--------------9-9-9-9\---------|----------9-9-9-----------9-9--| 
  A|-------------------------------|-------------------------------| 
  E|0-----------0-----------0------|--------0-------0-------0-----0| 
              Let down                        Let down 
                it                              it 



    F#              F               E7 
  e|-------------------------------|-------------------------------| 
  B|2-----------(2)-1--------------|-------------------------------| 
  G|3---------------2--------------|1-----------------------------0| 
  D|4---------------3--------------|2-----------------------0-2----| 
  A|-------------------------------|------------------0-2----------| 
  E|-------------------------------|------------0-3B---------------| 
    Oooooooooooh,   oooooooooooh,   ooooooooh 



    E                               E7 
  e|101112--12\-----------------101112\----------------------------| 
  B|121212--12\-----------------121212\----------------------------| 
  G|--------------9-9-9-9\---------|------7-7-7-7\------7-7-7\-----| 
  D|--------------9-9-9-9\---------|------9-9-9-9\------9-9-9\-----| 
  A|-------------------------------|-------------------------------| 
  E|------------0-----------0------|----0-----------0--------------| 
              Let down                        Let down 
                it                              it 



    F#              F               E7 
  e|-------------------------------|-------------------------------| 
  B|2---------------1--------------|0------------------------------| 
  G|3---------------2--------------|1------------------------------| 
  D|4---------------3--------------|2--------------/9-9-7-5--------| 
  A|-------------------------------|2-----------------------7\5-5B-| 
  E|-------------------------------|0------------------------------| 
    Oooooooooooh,   oooooooooooh,   ooooooooh 




    05:35 

    E                               E7 
  e|----121212\--------------------|121212\------------------------| 
  B|----121212\--------------------|121212\------------------------| 
  G|--------------9-9-9-9\---------|------------7-7-7\----7-7-7-7\-| 
  D|--------------9-9-9-9\---------|------------9-9-9\----9-9-9-9\-| 
  A|-------------------------------|-------------------------------| 
  E|0-----------0---------------0--|--------0-----------0----------| 
              Let down 
                it 



    F#7             F               E7 
  e|-------------------------------|-------------------------------| 
  B|2-----------------1------------|----0---0----------------------| 
  G|3-------------------2---2------|----1---1---------9------------| 
  D|2-----------4P3-------------3--|----0---0----/9-----\75--------| 
  A|4------------------------------|----2---2---------------7\5----| 
  E|2------------------------------|0-----------0---------------3B-| 




    E                               E7 
  e|----121212\--------------------|121212\------------------------| 
  B|----121212\--------------------|121212\------------------------| 
  G|----------------9-9-9\---------|------------7-7-7\------7-7-7\-| 
  D|----------------9-9-9\---------|------------9-9-9\------9-9-9\-| 
  A|-------------------------------|-------------------------------| 
  E|0-----------0---------------0--|----------0---------0----------| 




    F#7             F               E7 
  e|---------------(0)-------------|-------------------------------| 
  B|2---------------1--------------|0------------------------------| 
  G|3---------------2--------------|1------------------------------| 
  D|2---------------3--------------|0-------------5-9-9-7-5--------| 
  A|4---------------3--------------|2-----------------------7\5----| 
  E|2---------------1--------------|0---------------------------3B-| 




    E                               E7 
  e|----121212\--------------------|121212\-------------121212-----| 
  B|----121212\--------------------|121212\-------------121212-----| 
  G|----------------9-9-9\---------|--------7-7-7-------------7-7--| 
  D|----------------9-9-9\---------|--------9-9-9-------------9-9--| 
  A|-------------------------------|------------------------------0| 
  E|0-----------0------------------|-------------------------------| 




    F#              F               E7 
  e|----------------1--------------|0-------------0---------0------| 
  B|2---------------1--------------|0---------------0-3---3--------| 
  G|----------------2--------------|1---------------------------4\1| 
  D|----------------3--------------|0------------------------------| 
  A|----------------3--------------|2------------------------------| 
  E|----------------1--------------|0------------------------------| 




    E                               E7 
  e|----121212\--------------------|121212\------------------------| 
  B|----121212\--------------------|121212\------------------------| 
  G|--------------9-9-9-9\---------|------------7-7-7\------7-7-7--| 
  D|--------------9-9-9-9\---------|------------9-9-9\------9-9-9--| 
  A|-------------------------------|-------------------------------| 
  E|0-----------0-----------------0|----------0-----------0--------| 




    F#              F               E7 
  e|-------------------------------|-------------------------------| 
  B|2---------------1--------------|--0----------------------------| 
  G|3---------------2--------------|-1-----------------------------| 
  D|4---------------3--------------|0------------------------------| 
  A|4------------------------------2-------------------------------| 
  E|2-----------------------------0|-------------------------------| 
	  

Full key step upFull key step up
Half key step upHalf key step up
Half key step downHalf key step down
Full key step downFull key step down
Search Paypal
auto scroll beats size up size down change color hide chords drawings
tab show chords e-chords YouTube Clip e-chords hide all tabs e-chords go to top tab