Gene Vincent

Bluejean Bop

Gene Vincent

tabs

by  FERNSANTANA

save to print version add songbook text version e-mail correct tuner
chordsukulelecavacokeyboardtabbassdrumsharmonicaflute Guitar Pro
close

there isn't a video lesson for this song

chords

Bluejean Bop

	  		 


Gtr I (E A D G B E) - 'Cliff Gallup - Electric Guitar' 


 Intro 
  Free time Q=100 
             G       E       C                 G6add9 
 4/4 
  Gtr I 
                      ~~ 
                                               |3|  |---3---| 
  W          E E E E  H      E E E E +Q   Q    Q E  E   E   E  +H 
|----------:---------------|-----------------:-------------------------: 
|----------:-------3-^5----|-------1-(1)-----:--------------3--(3)/----: 
|----------:-----4---^4----|-----0-----------:----------2--(2)-(2)/----: 
|----------:---4-----^6----|---2-------------:------2--(2)-(2)-(2)/----: 
|----------:-5-------------|-3---------------:---2-(2)-(2)-(2)-(2)/----: 
|----------:---------------|-----------------:-3-----------------------: 


              G       E     F/C     C      G6add9 
 3/4         4/4               3/4        5/4 
                       ~~~                           ~~~~~~~~~ 
    H    Q    E E E E  Q.   E   E E H      E E E E E Q.   +Q 
|-/15-------:-------3---------:----------:-----------3----(3)---: 
|-/15-------:-----3---^5------:---1-1----:---------3------------: 
|-/14-------:---4-----^4------:-2---0----:-------2--------------: 
|-/14-------:-5-------^6------:-----2----:-----2----------------: 
|-/14-------:---------------3-:----------:---2------------------: 
|-----------:-----------------:----------:-3--------------------: 


                                                    Fast Rock Shuffle Q=196(8=s8) 
  G              C                 G6add9           N.C. 
 4/4 
          ~                                  ~~ 
  E E E E H      E E E E +Q   Q    E E E E E Q.     W 
|--------------:-----------------|-----------3----|------| 
|-----3---5----:-------1-(1)-----|---------3------|------| 
|---4----------:-----0-----------|-------2--------|------| 
|-5------------:---2-------------|-----2----------|------| 
|-------5------:-3---------------|---2------------|------| 
|--------------:-----------------|-3--------------|------| 


             1st Verse 
              N.C.                                 G 
  W           Q  Q  Q  Q    H    E Q  E   +E  E Q  Q   Q 
|----------||-------------|-------------|----------3\-----| 
|----------||-------------|-------------|----------3\-----| 
|----------||-------0--2--|--------0--0-|-(0)-0-0--4\-----| 
|----------||----2--------|------2------|-----------------| 
|----------||-3-----------|-3-----------|-----------------| 
|----------||-------------|-------------|-----------------| 


                 N.C. 
  E E E E H      Q  Q  Q  Q    H    +E  E Q    Q  Q  H 
|-------3------|-------------|---------------|------------| 
|-----3--------|-------------|---------------|------------| 
|---4----------|-------0--2--|----------0-0--|-0----------| 
|-5------------|----2--------|---------------|------------| 
|--------------|-3-----------|-3----(3)------|------------| 
|--------------|-------------|---------------|------------| 


                 Chorus 
                  N.C.                        G 
  E E q  Q  Q     Q  Q  H      Q  Q  E Q.     +Q   E   +E  E E E E 
|--------------||------------|--------------|------6---(6)----------| 
|--------------||------------|--------------|------5b6-(5)-5-3------| 
|--------------||------------|---------0----|-(0)--------------5-3h=| 
|-0-2-4--5--0--||-------2----|-------2------|-----------------------| 
|--------------||-3--3-------|-3--3---------|-----------------------| 
|--------------||------------|--------------|-----------------------| 


  E E Q  +E  E E E   Q  H.        W          E Q      E E E E E 
|------------------|------------|----------|---6b6.5--3----------| 
|------------5-3-3-|----3-------|----------|------------5-3------| 
|-4-0--------------|------------|----------|----------------5-3h=| 
|-----2--(2)-------|------------|----------|---------------------| 
|------------------|------------|----------|---------------------| 
|------------------|------------|----------|---------------------| 


  E E E E E E E E   E E E E q  E E   Q  E E E E E E   E E E E E E Q 
|-----------------|----------------|----------------|----------------| 
|-----------------|----------------|------3---0h1-2-|-3p2p1---0------| 
|-4-0-------------|-------4--------|-4------4-------|-------3---0----| 
|-----2-0-5-0---0-|-5-0-5---5--5-5-|----5-----------|-------------2--| 
|-----------------|----------------|----------------|----------------| 
|-----------------|----------------|----------------|----------------| 


                      Guitar Solo 
                       N.C.                                G 
                            ~~~~~~~~~ 
     |-3-| |-3-| 
  Q  E E E E E E Q     Q.   E +Q   Q    +E  Q.   E E E E   q  E E E E q 
|-------------------||----------------|------------------|-----------------| 
|-------------------||----------------|-----1------------|----------3-3----| 
|-------------------||-------------0--|-(0)------2-0-----|------3h4--------| 
|-5--3h5p3-2h3p2-0--||------2-(2)-----|--------------2-0-|-5--5------------| 
|-------------------||-3--------------|------------------|-----------------| 
|-------------------||----------------|------------------|-----------------| 


                     |-3-| 
  E Q  E E E +E  E   E E E E E E E Q    Q  E E +E  E E E   q  q  a E E E E 
|---6--3-5-3-(3)-6-|-6p5p3------------|------------------|-------------------| 
|----------------5-|-------5-3--------|------------------|-------------------| 
|------------------|-----------5-3-4--|----5-3-(3)-0-----|-------3h4-0-------| 
|------------------|------------------|--------------2-0-|-5--5--------2-0---| 
|------------------|------------------|------------------|-------------------| 
|------------------|------------------|------------------|-------------------| 


                   2nd Verse 
                    G            N.C. 
  E E E E E E Q     Q  Q  H      H    Q  Q    Q  Q  Q  E E 
|-------3--------||-------3----|------------|--------------| 
|-----3----------||-------3----|------------|--------------| 
|---4------------||-------4----|---------3--|--------------| 
|-5--------------||------------|------------|-5--0--5--0-0-| 
|-----------4h5--||----5-------|------------|--------------| 
|----------------||-3----------|------------|--------------| 


  E Q  E E E E E   q  Q  Q  E E   Q  E E E E E E   q  Q  H 
|----------------|--------------|----------------|------------| 
|----------------|--------------|----------------|------------| 
|------3h4-0-----|--------------|------3h4-0-----|------------| 
|-5-5--------2-0-|-5--0--5--0-0-|----5-------2-0-|-5----------| 
|----------------|--------------|----------------|------------| 
|----------------|--------------|----------------|------------| 


                    Chorus 
                     C                                N.C. 
  E E E E E E E E    Q  Q  H      E E E E +E  E E E   Q  Q  a E E Q 
|-----------------||------------|-------------------|----6-----------| 
|-----------------||------------|-------1-(1)-------|----5-----------| 
|-----------------||-------0----|-----0-------3-2-0-|-------3h4------| 
|-0-2-4-5---0-0-0-||----2-------|---2---------------|-----------5----| 
|-----------------||-3----------|-3-----------------|----------------| 
|-----------------||------------|-------------------|----------------| 


                    D 
  E E E E E E E E   a Q  H    Q    Q  E a E +E  E E E   H    a E E E E 
|-------3---------|--------------|--------------------|-----------------| 
|-----3-----6-5-3-|--------------|----1---------------|-----------------| 
|---4-------------|-4h5----------|------2h3-(3)-0-----|------3h4-0------| 
|-5---------------|------4-------|----------------2-0-|-5----------2-0--| 
|-----------------|------5----5--|--------------------|-----------------| 
|-----------------|--------------|--------------------|-----------------| 


                      Guitar Solo 
  G                    N.C. 
  E E E E +E  E E E    Q  Q  E Q.      E Q   E +E  E Q    E Q   E +E  Q   E 
|-------3-(3)-3-----||----6--5-------|-6-----3-(3)------|-6-----5-(5)-----6-| 
|-----3-3-(3)-3-----||---------------|------------------|-------------------| 
|---4-----------4---||---------4-----|---4---------4-4--|---4---------4-----| 
|-5---------------5-||----5-------5--|-----5------------|-----5---------5---| 
|-------------------||---------------|------------------|-------------------| 
|-------------------||-3-----3-------|-3--------3-------|-3--------3--------| 
                       Q  Q  Q    Q    Q   Q    Q    Q    Q   Q    Q    Q 


  +E  Q   E +E  E Q    Q  Q  E Q.      E Q   E +E  E Q     E  Q.      E Q. 
|-(6)-----3-(3)------|----6--5-------|-3-----3-(3)------|----10------10--------| 
|--------------------|---------------|------------------|---------------8------| 
|-----4---------4-4--|---------3-----|---3--------------|----------------------| 
|-------5------------|----5-------5--|-----5------------|----------------------| 
|--------------------|-------3-------|-3--------3--5s===|=10-----10--10----10--| 
|--3---------3-------|-3-------------|------------------|----------------------| 
   Q    Q    Q    Q    Q  Q  Q    Q    Q   Q    E  Q.      Q      Q   Q     Q 


   E Q     E  +E  Q.       E Q.    E E E E   E E E E E E E E   q  q  a E E E E 
|-10------10-(10)--------|-----------------|-----------------|-----------------| 
|----8------------8------|---5b6---5-3-----|---3-------------|-----------------| 
|------------------------|-------------5-3h|=4---5-3h4-0-----|-------3h4-0-----| 
|------------------------|-----------------|-------------2-0-|-5--5--------2-0-| 
|-10---10-----10-----10--|-----------------|-----------------|-----------------| 
|------------------------|-----------------|-----------------|-----------------| 
   Q    Q      Q      Q 


                    Chorus 
  G                  N.C. 
  E E E E +Q   Q     q  q  H      q  q  Q  E E   q  q  a E E E E 
|-------3-(3)-----||------------|--------------|-----------------| 
|-----3-3-(3)-----||------------|--------------|-----------------| 
|---4-------------||------------|------------0-|-------3h4-0-----| 
|-5---------------||------------|--------------|-5--5--------2-0-| 
|-----------------||-3--3-------|-3--3---------|-----------------| 
|-----------------||------------|--------------|-----------------| 


  q  q  a E E E E   E a Q.   E E Q    E Q  E +E  E E E   Q  Q  a E E E E 
|-----------------|-----------------|------------------|------------------| 
|-----------5-3-5-|---5s6----5-3----|------------------|------------------| 
|-------3h4-------|-----------------|-3----3-(3)-0-----|-------3h4-0------| 
|-5--5------------|-----------------|---5----------2-0-|-5--5--------2-0--| 
|-----------------|-----------------|------------------|------------------| 
|-----------------|-----------------|------------------|------------------| 


                   Guitar Solo 
  G                 N.C. 
  E E E E E Q.      S S E S S E Q  E S S   Q  Q  Q.   E   Q  Q  Q.   E 
|-------3--------||-7-7-7-5-5-5-3--5-5S6S|=7--7--7----7s|=5--5--5----5s==| 
|-----3-----3----||-7-7-7----------------|--------------|----------------| 
|---4------------||----------------------|--------------|----------------| 
|-5--------------||----------------------|--------------|----------------| 
|----------------||----------------------|--------------|----------------| 
|----------------||----------------------|--------------|----------------| 


                               ~~~~~~~~ 
  E E Q  E E E E   Q  E E E Q  E   +Q   E E E E E E   E E E E E E E E 
|-7-7-7--5-3-----|---------------|------------------|-----------3--------| 
|------------5-3-|---------------|------------------|-------3-------5b6r=| 
|----------------|-5--3-0-2-3--3-|-(3)--0-3-2-0-----|--------------------| 
|----------------|---------------|--------------2-0-|--------------------| 
|----------------|---------------|------------------|-5-4-3--------------| 
|----------------|---------------|------------------|--------------------| 


  +E  E E E E E E E   E E E E E E E E   E E E E E E E E   Q  E E E E E E 
|-----------------3-|-----------------|-----------------|----------------| 
|-(5)-3-------3---3-|---3---3---3---3-|---3-3-----------|----------------| 
|-------5-3h4-------|-----------------|-------5-3h4-0---|-0----3h4-0-----| 
|-------------------|-0---0---0---0---|-0-------------2-|----5-------2-0-| 
|-------------------|-----------------|-----------------|----------------| 
|-------------------|-----------------|-----------------|----------------| 


                 Outro 
  G               N.C. 
  E E E E H       Q  Q  Q.   E   E E E E +E  E E E   E  E Q  E Q  E 
|-------3------||----3---------|-----------------3-|---^x------------| 
|-----3--------||----3--5------|-----3-5-(5)---3---|---^x----5p3-----| 
|---4----------||------------3-|-3h4---------4-----|---^x---------3h=| 
|-5------------||--------------|-------------------|---^x------------| 
|--------------||--------------|-------------------|-----------------| 
|--------------||--------------|-------------------|-----------------| 


  E E E E E Q.     Q  Q  E Q.     E E E a E +E  E E E   +E  E Q  E Q  E 
|-------3--------|----6---------|-5p3-3-5s7-(7)-3-----|-------5----------| 
|---3-5-----3----|-------5p3----|-----------------5-3-|-(3)h5----5p3-----| 
|-4--------------|--------------|---------------------|---------------3h=| 
|----------------|--------------|---------------------|------------------| 
|----------------|--------------|---------------------|------------------| 
|----------------|--------------|---------------------|------------------| 


  E E E E E Q  E      +Q    E E E E Q    Q  E E E Q.     E Q  E E E E E 
|-------3-----------|------------------|---------------|---3--3----------| 
|---3-5-----3--5b6==|=(5)r--5-3--------|---------------|--------5-3------| 
|-4-----------------|-----------5-3h4--|----------0----|------------5-3h=| 
|-------------------|------------------|-5----0h2------|-----------------| 
|-------------------|------------------|---------------|-----------------| 
|-------------------|------------------|---------------|-----------------| 


               G6add9 
                     ~~~~~~~~~~~~~~~~ 
  E E E E +Q   Q    +W           +W 
|-------3-(3)--3--|-(3)--------|-(3)----*| 
|---3-5--------3--|-(3)--------|-(3)----*| 
|-4------------2--|-(2)--------|-(2)----*| 
|--------------2--|-(2)--------|-(2)----*| 
|--------------2--|-(2)--------|-(2)----*| 
|--------------3--|-(3)--------|-(3)----*| 


Duration Legend 
--------------- 
W - whole; H - half; Q - quarter; E - 8th; S - 16th; T - 32nd; X - 64th; a - acciaccatura 
+ - note tied to previous; . - note dotted; .. - note double dotted 
Uncapitalized letters represent notes that are staccato (1/2 duration) 
Irregular groupings are notated above the duration line 
Duration letters will always appear directly above the note/fret number it represents the 
duration for.  Duration letters with no fret number below them represent rests.  Multi- 
bar rests are notated in the form Wxn, where n is the number of bars to rest for.  Low 
melody durations appear below the staff 

Tablature Legend 
---------------- 
 h   - hammer-on 
 p   - pull-off 
 b   - bend 
 pb  - pre-bend 
 r   - bend release (if no number after the r, then release immediately) 
 /\  - slide into or out of (from/to "nowhere") 
 s   - legato slide 
 S   - shift slide 
  - natural harmonic 
n  - artificial harmonic 
n(n) - tapped harmonic 
 ~   - vibrato 
 tr  - trill 
 T   - tap 
 TP  - trem. picking 
 PM  - palm muting 
\n/  - tremolo bar dip; n = amount to dip 
 \n  - tremolo bar down 
 n/  - tremolo bar up 
/n\  - tremolo bar inverted dip 
 =   - hold bend; also acts as connecting device for hammers/pulls 
 <>  - volume swell (louder/softer) 
 x   - on rhythm slash represents muted slash 
 o   - on rhythm slash represents single note slash 

Misc Legend 
----------- 
 |  - bar 
||  - double bar 
||o - repeat start 
o|| - repeat end 
*|  - double bar (ending) 
 :  - bar (freetime) 
 $  - Segno 
 &  - Coda 
Tempo markers -  = BPM(8/16=s8/s16), where s8 = swing 8ths, s16 = swing 16ths 
		  

auto scroll beats size up size down change color hide chords drawings
tab show chords e-chords YouTube Clip e-chords hide all tabs e-chords go to top tab

share