Gemini Syndrome

Falling Apart

Gemini Syndrome

tabs nolevel nolevel

by  HUGO_RODRIGUES

save to print version add songbook text version e-mail correct tuner
chordsukulelecavacokeyboardtabbassdrumsharmonicaflute Guitar Pro
close

there isn't a video lesson for this song

chords

Falling Apart

	  		

Tuning: Drop A (A,E,A,D,F#,B) 

Riff 1 
 B|------------------------------------------------------------| 
F#|------------------------------------------------------------| 
 D|------------------------------------------------------------| 
 A|------------------------------------------------------------| 
 E|-------------2-2-2---------------------------2-2-2----------| 
 A|-2-2-2-0-0-0-------3-3-3-3-3-3-3-2-2-2-0-0-0-------3-3-3-3b-| 

Play Riff 1 x2 

Riff 2   "Look inside the picture frame..." 
 B|----0~----------------------------------------------| 
F#|----0~----------------------------------------------| 
 D|----------------------------------------------------| 
 A|-----------------------2--2----2--2----2--2----2--2-| 
 E|-----------------------2--2----2--2----2--2----2--2-| 
 A|-3---------------------2--2----2--2----2--2----2--2-| 

Play Riff 2 x2   "Only memory remains..." 
Play Riff 1 x1.5 "I can't save you..." 

Riff 3   "Every time I try to redirect your eyes..." 
 B|-----------------------------------------------------------------| 
F#|-----------------------------------------------------------------| 
 D|-----------------------------------------------------------------| 
 A|-2-2-2-2-2-2-2-2-2-2-2-2-2-2-2-2-0-0-0-0-0-0-0-0---4-4---4-4---4-| 
 E|-2-2-2-2-2-2-2-2-2-2-2-2-2-2-2-2-0-0-0-0-0-0-0-0-5-----5-----5---| 
 A|-2-2-2-2-2-2-2-2-2-2-2-2-2-2-2-2-0-0-0-0-0-0-0-0-----------------| 

 B|-----------------------------------------------------------------| 
F#|-----------------------------------------------------------------| 
 D|-----------------------------------------------------------------| 
 A|-3-3-3-3-3-3-3-3-3-3-3-3-3-3-3/5-1-1-1-1-1-1-1-1---5-5---5-5---5-| 
 E|-3-3-3-3-3-3-3-3-3-3-3-3-3-3-3/5-1-1-1-1-1-1-1-1-6-----6-----6---| 
 A|-3-3-3-3-3-3-3-3-3-3-3-3-3-3-3/5-1-1-1-1-1-1-1-1-----------------| 

 B|-----------------------------------------------------------------| 
F#|-----------------------------------------------------------------| 
 D|-----------------------------------------------------------------| 
 A|-2-2-2-2-2-2-2-2-2-2-2-2-2-2-2-2-0-0-0-0-0-0-0-0---4-4---4-4---4-| 
 E|-2-2-2-2-2-2-2-2-2-2-2-2-2-2-2-2-0-0-0-0-0-0-0-0-5-----5-----5---| 
 A|-2-2-2-2-2-2-2-2-2-2-2-2-2-2-2-2-0-0-0-0-0-0-0-0-----------------| 

 B|-----------------------------------------------------------------| 
F#|-----------------------------------------------------------------| 
 D|-----------------------------------------------------------------| 
 A|-3-3-3-3-3-3-3-3-3-3-3-3-3-3-3-3-2/3-3-2/3-3-2/3-3-2/3-3-5p3-3-3-| 
 E|-3-3-3-3-3-3-3-3-3-3-3-3-3-3-3-3-2/3-3-2/3-3-2/3-3-2/3-3-5p3-3-3-| 
 A|-3-3-3-3-3-3-3-3-3-3-3-3-3-3-3-3-2/3-3-2/3-3-2/3-3-2/3-3-5p3-3-3-| 

Play Riff 1 x1 
Play Riff 2 x2   "Everyday's a tragedy..." 
Play Riff 1 x1.5 "I can't save you..." 
Play Riff 3 x1   "Every time I try to redirect your eyes..." 

Riff 4   "Falling apart again..." 
 B|---------------------------------| 
F#|---------------------------------| 
 D|---------------------------------| 
 A|---------------------------------| x3 
 E|---------------------------------| 
 A|-0-2-2-2-2-2-0-2-2-2-2-2-0-2-2-2-| 
    * * * * * * * * * * * * * * * * 

 B|----------------------------| 
F#|----------------------------| 
 D|----------------------------| 
 A|----------------------------| 
 E|----------------------------| 
 A|-0-2-2-2-2-2-0-2-2-2-2-2-2b-| 

Riff 5   "Why!!" 
 B|--------------------------------------------------| 
F#|--------------------------------------------------| 
 D|-------------------------9--7--10--8--9--7--10--8-| 
 A|-------------------------x--x--x---x--x--x--x---x-| these octave chords are played with wah 
 E|-------------------------7--5--8---6--7--5--8---6-| 
 A|-2--0--3--1--2--0--3--1---------------------------| 

 B|--------------------------------------------------------| 
F#|--------------------------------------------------------| 
 D|--------------------------------------------------------| 
 A|-2--0--3--1----2--0--3--1--1-1--1-2--0--3--1----2--0--3-| 
 E|-2--0--3--1----2--0--3--1--1-1--1-2--0--3--1----2--0--3-| 
 A|-2--0--3--1----2--0--3--1--1-1--1-2--0--3--1----2--0--3-| 
                              * *  * 

Riff 6   "Every time I try to redirect your eyes..." (clean, let all notes ring out) 
 B|-0----0----0----0----| 
F#|-0----0----0----0----| 
 D|-2----2----2----3----| 
 A|-2----0----3----1----| 
 E|----------------1----| 
 A|----------------1----| 

Play Riff 3 x2   "...from falling apart again!!" 

Enjoy!! 
		  

See also:

tabs Deep Purple - Sometimes a Feel Like Screaming tabs Deep Purple - Mistreated tabs Deep Purple - Smoke on the Water (ver. 2) tabs Ira! - Vitrine Viva tabs Doa - Sexyest Girl tabs Deep Purple - Ted The Mechanic
e-chords

Other versions:

tabs Gemini Syndrome - Falling Apart tabs Papa Roach - Falling Apart
auto scroll beats size up size down change color hide chords drawings
tab show chords e-chords YouTube Clip e-chords hide all tabs e-chords go to top tab

share with facebook