Gary Moore

The Loner

Gary Moore

tabs Expert expert

by  ROWANE

save to print version add songbook text version e-mail correct tuner
chordsukulelecavacokeyboardtabbassdrumsharmonicaflute Guitar Pro
close

there isn't a video lesson for this song

chords

The Loner

	  		The Loner: Gary Moore 
 
 
---------------17----------17----------15--------------15----------------- 
--------15---------------------------------------------------------------- 
------15--16>(18)-17>(18)17~--15>(16)15~--12-12-14>(16)~--14>(15)<(14)---- 
----17-------------------------------------------------------------------- 
-------------------------------------------------------------------------- 
-------------------------------------------------------------------------- 
           *pick  
---------13------12-----------12------------------------------------------ 
----------------------------------------15-------------------------------- 
--14>(15)~-*<(14)~-9-9-11>(13)~-11-12h13~---15>(17)-14-12----------------- 
-------------------------------------w--------------------12~------------- 
-------------------------------------------------------------------------- 
-------------------------------------------------------------------------- 
end intro 
-------------------------------------------------------------------------- 
-------------------------------------------------------------------------- 
-------------------------------------------------------------------------- 
---5-7-7>(8)-----7>(8)----3-5-5\(7)--------5-3-5-----5~--5-7-7>(8)<(7)-5-- 
-5----------5\(6)-------3----------3\(5)-1-------1-0---------------------- 
--------------------------------------------------w----------------------- 
 
-------------------------------------------------------------------------- 
-------------------------------------------------------------------------- 
---------5>(7)<(5)-3h2------------5>(7)<(5)p3-h2-5------------------------ 
-5\(7)~--------------w--5-3---5~---------------w-5-3-5~--5>(off)---------- 
---------------------------h5--------------------5------------------------ 
----------------------------w--------------------------------------------- 
 
--------------------------------------------------------------------3~---- 
---8-10-10>(11)~------11~---6-8-8>(9)<(8)---------4-6-6>(7)<(6)----------- 
-7---------------7h8------5--------------5\(7)~-3--------------3/(2)------ 
------------------w------------------------------------------------------- 
-------------------------------------------------------------------------- 
-------------------------------------------------------------------------- 
 
--3-5-5>(6)<(5)-3-3\(5)~-------------------------------------------------- 
-------------------------------8-10-10>(11)---------10~----6-8>(10)<(8)--- 
--------------------------6>(7)------------5>(6)<(5)~---h5----w----------- 
---------------------------------------------------------w---------------- 
-------------------------------------------------------------------------- 
-------------------------------------------------------------------------- 
 
----------------------------------3-3-5-5>(6)<(5)-3-9>(11)---8>(9)<8------ 
--------------------4-6->(7)-----------------------------------------11-10 
-h5p(3)~--h3p(2)h(3)---w-----3p(2)~--------------------------------------- 
--w--------w------------------w------------------------------------------- 
-------------------------------------------------------------------------- 
-------------------------------------------------------------------------- 
 
-----------------------------9-9>(10)<(9)-----------------10-11-13-10>(11) 
-8----------------------8-11--------------11-10-8----8-------------------- 
---10---------------------------------------------10---------------------- 
------10>(11)<(10)p(8)-------------------------------w-------------------- 
----------------------10-------------------------------------------------- 
-------------------------------------------------------------------------- 
 
<(10)--------------------------------------------------------------------- 
------13-11-13>(14)<(13)-11h13p11\(10)-8-10-10>(11)<(10)-8---------------- 
-----------------------------------------------------------10-8-7--------- 
------------------------------------------------------------------10------ 
---------------------------------------------------------------------10--- 
-------------------------------------------------------------------------- 
 
----------------------------10-11-13-10>(11)<(10)------------------------- 
--------------------------------------------------13~-11-13-13>(14)<(13)-- 
-------------------------------------------------------------------------- 
-8---10>(11)-10>(11)<(10)~------------------------------------------------ 
---10--------------------------------------------------------------------- 
-------------------------------------------------------------------------- 
 
------------------------------------13>(14)~-17p15p14-15-15>(16)-15>(16)-- 
-11h13p11\(10)------------------------------------------------------------ 
--------------12-14-14>(15)<(14)-12--------------------------------------- 
-------------------------------------------------------------------------- 
-------------------------------------------------------------------------- 
-------------------------------------------------------------------------- 
 
-15>(16)<(15)---------15-17-17>(18)------------17----13-15-17------------- 
--------------14>(15)--------------13>(14)<(13)---13---------------------- 
--------------------------------------------------------------15>(16)<15~- 
-------------------------------------------------------------------------- 
-------------------------------------------------------------------------- 
-------------------------------------------------------------------------- 
 
--------------------------------------------15-15-17-17>(18)-19>(20)-20>(21) 
------------------16-18-18>(19)------------------------------------------- 
-15h17p15\(14)-15---------------14>(15)<(14)~----------------------------- 
-------------------------------------------------------------------------- 
-------------------------------------------------------------------------- 
-------------------------------------------------------------------------- 
 
-21>(22)~--20>(21)<(20)-18-17-------------20>(22)<(20)-18-17-------------- 
------------------------------20-18---20~--------------------20-18\(20)~-- 
-----------------------------------h19----------------------------w------- 
-------------------------------------w------------------------------------ 
-------------------------------------------------------------------------- 
-------------------------------------------------------------------------- 
 
 
-15----------------------------------------------------------------------- 
---18p15-------15-18-15--------------------------------------------------- 
--------17>(18)---------17-15---15h17-17>(18)<(17)-15--------------------- 
------------------------------17---------------------17-15h(17)-17-15/(0)- 
-------------------------------------------------------------------------- 
-------------------------------------------------------------------------- 
 
-20>(21)<20-18-17------------------------------------20>(21)<20-18-17----- 
--------------------20-18--------------------------------------------18>(19) 
--------------------------17>(19)<(17)-----0h3-----/(0)------------------- 
---------------------------------------17~--w-wwwww----------------------- 
-------------------------------------------------------------------------- 
-------------------------------------------------------------------------- 
 
-----|-------------|------------------------------------------------------ 
-----|--6----------|-------------------------------------------8-10-10>(11) 
-----|5---5>(6)<(5)|-----------5>(6)<(5)-5>(6)---------------------------- 
-----|-------------|--5-7-7>(8)----------------8-5-5~---10>(11)----------- 
-----|-------------|-5---------------------------------------------------- 
-----|-------------|------------------------------------------------------ 
 
 
-----------------------|-------------------------------------------------- 
--------------8>(9)<(8)|------10>(11)~------11>(12)~---11-11-11-----11---- 
-----------------------|-10-12---------10-12---------12--------12-10--12p10 
-10>(11)<(10)~---------|-------------------------------------------------- 
-----------------------|-------------------------------------------------- 
-----------------------|-------------------------------------------------- 
                              (pick these notes) 
|--------12>(13)~(13)(13)(13)(13)<(12)---------------------- 
|----------------------------------------------------------- 
|-11>(12)~---------------------------12-10h(12)h(15)-------- 
|-----------------------------------------------w----------- 
|----------------------------------------------------------- 
|----------------------------------------------------------- 
 
-------------------------------------------------------------------------- 
-------------15-18-18>(19)~------------15-18-20>(21)---------------------- 
--------15-17--------------------15-17------------------------------------ 
--15-17---------------------15-17----------------------------------------- 
-------------------------------------------------------------------------- 
-------------------------------------------------------------------------- 

		  

See also:

tabs Blind Melon - No Rain tabs Billy Idol - White Wedding tabs Santana - Maria Maria tabs Heart - Barracuda tabs Eric Clapton - Hey, Hey tabs Deep Purple - Smoke On The Water (Easy Intro)
e-chords

Other versions:

tabs Gary Moore - The Loner
auto scroll beats size up size down change color hide chords drawings
tab show chords e-chords YouTube Clip e-chords hide all tabs e-chords go to top tab

share