Gary Moore

Dunluce Part 2

Gary Moore

tabs

by  TAMAMOREIRA

save to print version add songbook text version e-mail correct tuner
chordsukulelecavacokeyboardtabbassdrumsharmonicaflute Guitar Pro
close

there isn't a video lesson for this song

chords

Dunluce Part 2

	  		
Tuning = Standard                            Instrumental 
                                           

00:14        h                              h  p      s      s 
e|----------7-9-10~~~~-|-9-10~~~~-|-12-12-10-12--10\5~~~~~\-|---h---9-10~~~~~--9------b-----| 
B|-10~~~~~-------------|----------|-------------------------|-10-12--------------10-7-7~~~~-| 
G|---------------------|----------|-------------------------|-------------------------------| 
D|---------------------|----------|-------------------------|-------------------------------| 
A|---------------------|----------|-------------------------|-------------------------------| 
E|---------------------|----------|-------------------------|-------------------------------| 

00:39                                                       
e|-----b--r-------|-b--s-------|----------|---------|----------| 
B|-7-8-8----7-5~~-|-7-7\-3-----|---b------|-b-r-----|----------| 
G|----------------|--------2~~-|-4-4~~~~~-|-4-------|-b-r------| 
D|----------------|------------|----------|----5~~~-|-4--------| 
A|----------------|------------|----------|---------|----5~~~~-| 
E|----------------|------------|----------|---------|----------| 

01:10         h                              h  p                                h  p                    
e|---p-------7-9-10~~~~-|-9-10~~~~-|-12-10-12-10------------s-|-7-9-10~~~~-|-9-10-9-------b---------| 
B|-12-10~~--------------|----------|--------------10-10~~~~~\-|------------|--------10--7-7~~~~~~~~-| 
G|----------------------|----------|--------------------------|------------|------------------------| 
D|----------------------|----------|--------------------------|------------|------------------------| 
A|----------------------|----------|--------------------------|------------|------------------------| 
E|----------------------|----------|--------------------------|------------|------------------------| 

01:33 
e|-----b--r-------|-3-b--r-------|----------|------|---------------| 
B|-7-8-8----7-5~~-|---5----3-----|---b------|-b-r--|---------------| 
G|----------------|----------2~~-|-4-4~~~~~-|-4----|-b-r-----------| 
D|----------------|--------------|----------|----5-|-4-----------s-| 
A|----------------|--------------|----------|------|----5~~~~~~~~\-| 
E|----------------|--------------|----------|------|---------------| 


02:02 
e|--------------------------|-----------------|--------b-----10--b-r-----b------rb-----b------| 
B|------b------8-b-rb-------|---b----r--------|-10-12-12~~~~----12---10-10~~~~-10-8--8-8~~~~~-| 
G|-7--9-9~~~~~---9-9--7~~~~-|-3-3~~~~~-2------|-----------------------------------------------| 
D|--------------------------|------------3~~~-|-----------------------------------------------| 
A|--------------------------|-----------------|-----------------------------------------------| 
E|--------------------------|-----------------|-----------------------------------------------| 

02:33 - Fast Part                                      h                    s     h  p      s     s 
e|---p--------------------------------------|---------7-9-10~~~~~-|-9-10--10\12-10-12-10--10\5~~~~\-| 
B|-10-8--p----------------------------------|-10~~~~--------------|---------------------------------| 
G|------9-7--p------------------------------|---------------------|---------------------------------| 
D|----------9-7--p--------------------------|---------------------|---------------------------------| 
A|--------------9-7--p---p------------------|---------------------|---------------------------------| 
E|------------------7-5-5-3-5~~~~~~~~~~~~~~-|---------------------|---------------------------------| 

02:49  b   r 
e|-7-9-9~~~~-------b-----------s-|-----b--r-------|-b-------|----------|---------|----------------------| 
B|-----------10--7-7~~~~~~~~~~~\-|-7-8-8----7-5~~-|-7-7-3---|---b------|-b-r-----|----------------------| 
G|-------------------------------|----------------|-------2-|-4-4~~~~~-|-4-------|-b-r------------------| 
D|-------------------------------|----------------|---------|----------|----5~~~-|-4--------------------| 
A|-------------------------------|----------------|---------|----------|---------|----5~~~~~~~~~~~~~~~~-| 
E|-------------------------------|----------------|---------|----------|---------|----------------------| 

p   = Pull Off 
h   = Hammer On 
b   = Bend 
rb  = Release Bend 
br  = Bend Release 
/   = Slide 

ENJOY... 
		  

See also:

tabs Yes - Roundabout tabs Queen - we will rock you (solo) tabs Status Quo - Whatever you want tabs Eric Clapton - Tears In Heaven (ver. 3) tabs The Beatles - Blackbird tabs Billy Idol - White Wedding
e-chords

Other versions:

tabs Gary Moore - Dunluce Part 2
auto scroll beats size up size down change color hide chords drawings
tab show chords e-chords YouTube Clip e-chords hide all tabs e-chords go to top tab

share