Gary Moore

Can't Fool The Blues

Gary Moore

tabs

by  TAMAMOREIRA

save to print version add songbook text version e-mail correct tuner
chordsukulelecavacokeyboardtabbassdrumsharmonicaflute Guitar Pro
close

there isn't a video lesson for this song

chords

Can't Fool The Blues

	  		


Intro 


                         E                   Em7          E 
e|-----------------------------------|-----------------------------------| 
B|-----------------------------------|---------8--(8)\--\3---------------| 
G|-----------------------------------|---------7--(7)\--\2---------------| 
D|-----------------------------------|-----------------------------------| 
A|-----------------------------5--7--|---------7--(7)\--\2---------5--7--| 
E|------------------------5h7--------|--0--------------------5h7---------| 



             Em7           E                   Em7           E 
e|-------------------------------------|-----------------------------------| 
B|-----------8--(8)\--\3---------------|---------8--(8)\--\3---------------| 
G|-----------7--(7)\--\2---------------|---------7--(7)\--\2---------------| 
D|-------------------------------------|-----------------------------------| 
A|-----------7--(7)\--\2---------5--7--|---------7--(7)\--\2---------5--7--| 
E|----0---------------------5h7--------|--0---------------------5h7--------| 




e|--------------------------------------------| 
B|----------------12--(12)\--\9---------------| 
G|----------------12--(12)\--\9---------------| 
D|----------------12--(12)\--\9---------------| 
A|--------------------------------------5--7--| 
E|----0----(0)---------------------5h7--------| 

  Verse 1 

             Em7           E                   Em7           E 
e|-------------------------------------|-----------------------------------| 
B|-----------8--(8)\--\3---------------|---------8--(8)\--\3---------------| 
G|-----------7--(7)\--\2---------------|---------7--(7)\--\2---------------| 
D|-------------------------------------|-----------------------------------| 
A|-----------7--(7\)--\2---------5--7--|---------7--(7)\--\2---------5--7--| 
E|----0---------------------5h7--------|--0---------------------5h7--------| 



             Em7           E                   Em7           E 
e|-------------------------------------|-----------------------------------| 
B|-----------8--(8)\--\3---------------|---------8--(8)\--\3---------------| 
G|-----------7--(7)\--\2---------------|---------7--(7)\--\2---------------| 
D|-------------------------------------|-----------------------------------| 
A|-----------7--(7)\--\2---------5--7--|---------7--(7)\--\2---------5--7--| 
E|----0---------------------5h7--------|--0---------------------5h7--------| 



             Em7           E                   Em7           E 
e|-------------------------------------|-----------------------------------| 
B|-----------8--(8)\--\3---------------|---------8--(8)\--\3---------------| 
G|-----------7--(7)\--\2---------------|---------7--(7)\--\2---------------| 
D|-------------------------------------|-----------------------------------| 
A|-----------7--(7)\--\2---------5--7--|---------7--(7)\--\2---------5--7--| 
E|----0---------------------5h7--------|--0---------------------5h7--------| 



             Em7           E 
e|-------------------------------------|--0--0--0--0--0--0---------------------| 
B|-----------8--(8)\--\3---------------|--0-3b5-0--0-3b5-0-3h5-3b4-0-----------| 
G|-----------7--(7)\--\2---------------|------------------------------3\2-0----| 
D|-------------------------------------|------------------------------------2--| 
A|-----------7--(7)\--\2---------5--7--|---------------------------------------| 
E|----0---------------------5h7--------|---------------------------------------| 

   Chorus 


e|--------------------------------|-------------------------------| 
B|--------------------------------|-------------------------------| 
G|--------------------------------|-------------------------------| 
D|------------------------5--7p5--|--------------------5--7p5-----| 
A|------0----(0)--3/4--7----------|--0----(0)--3/4--7----------7--| 
E|--------------------------------|-------------------------------| 




e|-------------------------------|----------------------------| 
B|-------------------------------|-----8----------------------| 
G|-------------------------------|-----7----------------------| 
D|-------------------------------|-----6----------------------| 
A|----------------------5--7--5--|----------------5--7--5-----| 
E|----0----(0)--3/4--7-----------|--0-----5\4--7-----------7--| 




e|----------------------------|-----------------------------| 
B|----------------------------|-----------------------------| 
G|----------------------------|-----------------------------| 
D|-------------------7--9--7--|------------------5--7p5-----| 
A|--------------6-7-----------|------------4--7----------7--| 
E|----7----(7)----------------|--5----(5)-------------------| 



                                  B7/9              E 
e|-------------------------|------------------------------------| 
B|-------8-----------------|------3-3--3-3-3--3-3-3-------------| 
G|-------7-----------------|------2-2--2-2-2--2-2-2-------------| 
D|-------6-----------------|------1-1--1-1-1--1-1-1-------------| 
A|----------------5--7--5--|------2-2--2-2-2--2-2-2-------5--7--| 
E|----0-----4--7-----------|-------------------------5h7--------| 

   Verse 2 


             Em7           E                   Em7           E 
e|-------------------------------------|-----------------------------------| 
B|-----------8--(8)\--\3---------------|---------8--(8)\--\3---------------| 
G|-----------7--(7)\--\2---------------|---------7--(7)\--\2---------------| 
D|-------------------------------------|-----------------------------------| 
A|-----------7--(7\)--\2---------5--7--|---------7--(7)\--\2---------5--7--| 
E|----0---------------------5h7--------|--0---------------------5h7--------| 



             Em7           E                   Em7           E 
e|-------------------------------------|-----------------------------------| 
B|-----------8--(8)\--\3---------------|---------8--(8)\--\3---------------| 
G|-----------7--(7)\--\2---------------|---------7--(7)\--\2---------------| 
D|-------------------------------------|-----------------------------------| 
A|-----------7--(7)\--\2---------5--7--|---------7--(7)\--\2---------5--7--| 
E|----0---------------------5h7--------|--0---------------------5h7--------| 



             Em7           E                   Em7           E 
e|-------------------------------------|-----------------------------------| 
B|-----------8--(8)\--\3---------------|---------8--(8)\--\3---------------| 
G|-----------7--(7)\--\2---------------|---------7--(7)\--\2---------------| 
D|-------------------------------------|-----------------------------------| 
A|-----------7--(7)\--\2---------5--7--|---------7--(7)\--\2---------5--7--| 
E|----0---------------------5h7--------|--0---------------------5h7--------| 




e|-------------------------------------|--0--0--0--0--0--0---------------------| 
B|-------------------------------------|--0-3b5-0--0-3b5-0-3h5-3b4-0-----------| 
G|-------------------------------------|------------------------------3\2-0----| 
D|-------------------------------------|------------------------------------2--| 
A|-------------------------------------|---------------------------------------| 
E|----0--------------------------------|---------------------------------------| 

   Chorus 


e|--------------------------------|-------------------------------| 
B|--------------------------------|-------------------------------| 
G|--------------------------------|-------------------------------| 
D|------------------------5--7p5--|--------------------5--7p5-----| 
A|------0----(0)--3/4--7----------|--0----(0)--3/4--7----------7--| 
E|--------------------------------|-------------------------------| 




e|-------------------------------|----------------------------| 
B|-------------------------------|-----8----------------------| 
G|-------------------------------|-----7----------------------| 
D|-------------------------------|-----6----------------------| 
A|----------------------5--7--5--|----------------5--7--5-----| 
E|----0----(0)--3/4--7-----------|--0-----5\4--7-----------7--| 




e|----------------------------|-----------------------------| 
B|----------------------------|-----------------------------| 
G|----------------------------|-----------------------------| 
D|-------------------7--9--7--|------------------5--7p5-----| 
A|--------------6-7-----------|------------4--7----------7--| 
E|----7----(7)----------------|--5----(5)-------------------| 



                                  B7 
e|-------------------------|---------------------5/--/12--------------| 
B|-------8-----------------|---------------------5/--/12--------------| 
G|-------7-----------------|------2-2--2-2-2--2-----------12\--\5-----| 
D|-------6-----------------|------1-1--1-1-1--1-----------12\--\5-----| 
A|----------------5--7--5--|------2-2--2-2-2--2-----------12\--\5-----| 
E|----0-----4--7-----------|---------------------------------------0--| 

  Guitar solo 1 

     E 
e|---------------------------------------------------|--------------------------------------| 
B|---------------------------------------------------|--------------------------------------| 
G|----14b16--12--14------12-----------12b13----------|--------------------------------------| 
D|-------------------14-----14--(14)-----------------|------7b9--(9)----(9)----r7p5---------| 
A|---------------------------------------------------|------------------------------7--(7)--| 
E|---------------------------------------------------|--------------------------------------| 


                                                                                  ~~~~ 

e|------------0-------0-2p0-2p0---0------------------|--------------------------------------| 
B|----------0---0-3b4-----------3-0-3p0--------------|--------------------------------------| 
G|------2b3-----------------------------3p2p0---2----|--0-2-2b4-(4)-(4)-2b4-2b4-(4)---------| 
D|--------------------------------------------2---2--|---------------------------------2-2--| 
A|---------------------------------------------------|--------------------------------------| 
E|---------------------------------------------------|--------------------------------------| 


          ah 

e|-------------------------------------------|-------------------------------| 
B|-------------------------------------------|-------------------------------| 
G|------4b7--r4--2-4-0h2-2-2-2p0-------------|-------------------------------| 
D|----(0)------------------------2--(2)p0----|-------------------------------| 
A|---(0)----------------------------------2--|--0h2p0---0--------------------| 
E|-------------------------------------------|--------3---3b5-3b4-0--0-0--0--| 




e|-----------------------------------------|----------------------------------------------| 
B|-----------------------------------------|-----------8--8--8--10/15--15--15--(15)--b16--| 
G|-----------------------------------------|--7--7--7-------------------------------------| 
D|-----------------------------------------|----------------------------------------------| 
A|----5--5--5--5-\2--10--10--10--10--------|----------------------------------------------| 
E|-----------------------------------12\5--|----------------------------------------------| 



     A 
e|----12----------------------------12----12----15b17-15p12--| 
B|-------15b17-(17)--(17)------(17)----15----15--------------| 
G|-----------------------------------------------------------| 
D|-----------------------------------------------------------| 
A|-----------------------------------------------------------| 
E|-----------------------------------------------------------| 




e|-------------------12-------------------------------------| 
B|----15p12-------12----15p12-15p12-15p12----12-------------| 
G|----------14b16-------------------------14----14p12-14----| 
D|-------------------------------------------------------14-| 
A|----------------------------------------------------------| 
E|----------------------------------------------------------| 


  --------------------------------------------| 
  -------12-----------------------------(12)--| 
  -12h14----14b15-14p12----14----12-----(12)--| 
  ----------------------14----14----14--(12)--| 
  --------------------------------------------| 
  --------------------------------------------| 



     E 
e|----------15b16-12--------------------------------------------------| 
B|--------(12)----12--12----12----------------------------------------| 
G|-------(12)------------14----12b13----14----13-------------------9--| 
D|-----------------------------------14----14----14-----------9/11----| 
A|--------------------------------------------------14-(14)\7---------| 
E|--------------------------------------------------------------------| 




e|--------------------------------------------------------| 
B|-----------12-12----12----12-12----12----(12)-12--------| 
G|----11b13-----11b13-11b13----11b13-11b13-(13)-11b12-12--| 
D|--------------------------------------------------------| 
A|--------------------------------------------------------| 
E|--------------------------------------------------------| 



     B 
e|----------------------------------------------------| 
B|----10------10------10------10------10------10------| 
G|--------12------12------12------12------12------12--| 
D|----------------------------------------------------| 
A|----------------------------------------------------| 
E|----------------------------------------------------| 



     A 
e|--------------------------------------------0------| 
B|----10------10------10------10------10------0------| 
G|--------12------12------12------12------12-----12--| 
D|---------------------------------------------------| 
A|---------------------------------------------------| 
E|---------------------------------------------------| 


                  tremolo picking |---- gradual slide whilst trem picking ----| 
     E 
e|----0-------0----------------------------|----------------------------------------------------| 
B|----10------10--10b------b12----12/------|-/14/--------------/18/--------/20\-----------------| 
G|--------12------12b------b14----14/------|-/15/--------------/20/--------/22-\----------------| 
D|-----------------------------------------|-------------------------------------\17\----\5-----| 
A|-----------------------------------------|-------------------------------------\17\----\5-----| 
E|-----------------------------------------|-------------------------------------\17\----\5--0--| 

  Verse 3 

             Em7           E                   Em7           E 
e|-------------------------------------|-----------------------------------| 
B|-----------8--(8)\--\3---------------|---------8--(8)\--\3---------------| 
G|-----------7--(7)\--\2---------------|---------7--(7)\--\2---------------| 
D|-------------------------------------|-----------------------------------| 
A|-----------7--(7\)--\2---------5--7--|---------7--(7)\--\2---------5--7--| 
E|----0---------------------5h7--------|--0---------------------5h7--------| 



             Em7           E                   Em7           E 
e|-------------------------------------|-----------------------------------| 
B|-----------8--(8)\--\3---------------|---------8--(8)\--\3---------------| 
G|-----------7--(7)\--\2---------------|---------7--(7)\--\2---------------| 
D|-------------------------------------|-----------------------------------| 
A|-----------7--(7)\--\2---------5--7--|---------7--(7)\--\2---------5--7--| 
E|----0---------------------5h7--------|--0---------------------5h7--------| 



             Em7           E                   Em7           E 
e|-------------------------------------|-----------------------------------| 
B|-----------8--(8)\--\3---------------|---------8--(8)\--\3---------------| 
G|-----------7--(7)\--\2---------------|---------7--(7)\--\2---------------| 
D|-------------------------------------|-----------------------------------| 
A|-----------7--(7)\--\2---------5--7--|---------7--(7)\--\2---------5--7--| 
E|----0---------------------5h7--------|--0---------------------5h7--------| 




e|-------------------------------------|--0--0--0--0--0--0---------------------| 
B|-------------------------------------|--0-3b5-0--0-3b5-0-3h5-3b4-0-----------| 
G|-------------------------------------|------------------------------3\2-0----| 
D|-------------------------------------|------------------------------------2--| 
A|-------------------------------------|---------------------------------------| 
E|----0--------------------------------|---------------------------------------| 

   Chorus 


e|--------------------------------|-------------------------------| 
B|--------------------------------|-------------------------------| 
G|--------------------------------|-------------------------------| 
D|------------------------5--7p5--|--------------------5--7p5-----| 
A|------0----(0)--3/4--7----------|--0----(0)--3/4--7----------7--| 
E|--------------------------------|-------------------------------| 




e|-------------------------------|----------------------------| 
B|-------------------------------|-----8----------------------| 
G|-------------------------------|-----7----------------------| 
D|-------------------------------|-----6----------------------| 
A|----------------------5--7--5--|----------------5--7--5-----| 
E|----0----(0)--3/4--7-----------|--0-----5\4--7-----------7--| 




e|----------------------------|-----------------------------| 
B|----------------------------|-----------------------------| 
G|----------------------------|-----------------------------| 
D|-------------------7--9--7--|------------------5--7p5-----| 
A|--------------6-7-----------|------------4--7----------7--| 
E|----7----(7)----------------|--5----(5)-------------------| 



                                  B7/9 
e|-------------------------|-------------------------------------| 
B|-------8-----------------|------3-3--3-3-3--3-3--3--3----------| 
G|-------7-----------------|------2-2--2-2-2--2-2--2--2--5/12p0--| 
D|-------6-----------------|------1-1--1-1-1--1-1--1--1----------| 
A|----------------5--7--5--|------2-2--2-2-2--2-2--2--2----------| 
E|----0-----4--7-----------|-------------------------------------| 

  Guitar solo 2 

     E 
e|----0----0--0------0---------------|-------------------------------------------------| 
B|----3/5--5--3/5----5--3/5----------|-(5)-3---3-0-------------------------------------| 
G|-----------------------------------|-------4-----2h3p2p0---2---0-2--2b3r2p0----------| 
D|-----------------------------------|---------------------2---2--------------2-(2)p0--| 
A|-----------------------------------|-------------------------------------------------| 
E|-----------------------------------|-------------------------------------------------| 




e|---------------------------------------------|-----------------------------------------| 
B|--------8-9b12--(12)----r9-------------------|--8b9-10-10b12--r10----8--------------5--| 
G|----------9b13--(13)----r9----8--------------|--------------------9----9-(9)--9\4h6----| 
D|--------------------------------9-(9)--9--9--|-----------------------------------------| 
A|---------------------------------------------|-----------------------------------------| 
E|---------------------------------------------|-----------------------------------------| 



     A 
e|-----------------------------------------------| 
B|------7b9--7b8----r7--5h7p5---5---------8------| 
G|----(0)---------------------6---7b9-(9)---9\4--| 
D|---(0)-----------------------------------------| 
A|-----------------------------------------------| 
E|-----------------------------------------------| 




e|----0-----------------------------------------------------------------------------| 
B|----0------------15-12h15p12----12-------12-15-12h15p12----12---------------------| 
G|-----------------------------14----14b15----------------14----14p12-14-12b13------| 
D|-----------------------------------------------------------------------------14p--| 
A|----------------------------------------------------------------------------------| 
E|----------------------------------------------------------------------------------| 



     E 
e|-----------------------------------------------------| 
B|-----------------------------------------------------| 
G|----------------------------------12b13-14-14b15-14--| 
D|---p12----14-14-(14)-------(14)14--------------------| 
A|-------14--------------------------------------------| 
E|-----------------------------------------------------| 




e|-----------------------------------------------------| 
B|-----------------------------------------------------| 
G|----12h14p12------------------------------------9-9--| 
D|-------------14-12b13----------------12h14-9/11------| 
A|----------------------14\12-10b11--------------------| 
E|----------------------------------12-----------------| 



     B 
e|------------------------------------------------| 
B|----------12-12-------12------------------------| 
G|----11b13----11b12-------11b12r11---------------| 
D|----------------------------------11--(11)p9\2--| 
A|------------------------------------------------| 
E|------------------------------------------------| 



     A 
e|----------------------------------------------------------------------------------| 
B|----------12b14--(14)-12-10----10-12-10h12p10----10----8--------------------------| 
G|----------12b15--(15)-------12----------------12----12-9-9-9----11----9-11-11b12--| 
D|--------(0)--------------------------------------------------11----11-------------| 
A|-------(0)------------------------------------------------------------------------| 
E|----------------------------------------------------------------------------------| 



     E                                         B 
e|---------------------------------------------|-----------------------------12--| 
B|----------------12---------------------------|------------12\--\0-------12-----| 
G|---(12)r11-9-------9-9-9--------(9)-9--9--9--|--9--9-9--9-12\--\0--9/14--------| 
D|-------------11------------------------------|---------------------------------| 
A|---------------------------------------------|---------------------------------| 
E|---------------------------------------------|---------------------------------| 



     E 
e|-----------------12------------------------------------------| 
B|----15b17--(17)-----15p12------------------------------------| 
G|--------------------------14b16-14p12-----------12-----------| 
D|--------------------------------------14-14-14-----14\8------| 
A|-------------------------------------------------------------| 
E|-------------------------------------------------------------| 




e|-----------------12----12----12---------15b17--| 
B|----------15b17-----15----15----15-------------| 
G|--------(0)---------------------------0--------| 
D|-------(0)-------------------------------------| 
A|-----------------------------------------------| 
E|-----------------------------------------------| 




e|---(17)-15-12-----------------------------------------------------------------------| 
B|--------15----15p12-------12--------------------------------------------------------| 
G|--------------------14b16----14b16r14p12----14----12-14----------14h15p14p12--------| 
D|-----------------------------------------14----14----------------------------14-14--| 
A|------------------------------------------------------------------------------------| 
E|------------------------------------------------------------------------------------| 




e|---------------------------------------------------| 
B|-------------12b13--------14-12-------14-12----14--| 
G|-------------12b13-----12-------12b13-------12-----| 
D|---(14)--14---------14-----------------------------| 
A|---------------------------------------------------| 
E|---------------------------------------------------| 



     A 
e|--------------------------------------------------------------------| 
B|----12----14-12----12-(12)------------------------------------------| 
G|-------12-------12---------14b16r14p12----14----12-----12-----------| 
D|---------------------------------------14----14----14-----14\5------| 
A|--------------------------------------------------------------------| 
E|--------------------------------------------------------------------| 




e|--------------15-17-17b19-15-17----15b17-(17)-15-12--------------------| 
B|--------15b17-------------15----17------------------12-------12--------| 
G|-------------------------------------------------------14b16----12-14--| 
D|-------------------------------------------------------------------14--| 
A|-----------------------------------------------------------------------| 
E|-----------------------------------------------------------------------| 



     E 
e|----------------------12----------------15b16-12-----------------------| 
B|-------------------12----------------(12)--------12-------12-----------| 
G|----14----12-14b16------------------(12)------------14b16----12b13-----| 
D|-------14----------------------------------------------------------14--| 
A|-----------------------------------------------------------------------| 
E|-----------------------------------------------------------------------| 




e|---------------------------------------------------------------12-14--| 
B|-------------------------------------------------12------12-14--------| 
G|----14----12b13-------------------12----14-12b13----------------------| 
D|-------14-------14----------11-14----14-------------------------------| 
A|-------------------14-(14)--------------------------------------------| 
E|----------------------------------------------------------------------| 



     B 
e|--------14b16-12------------------------12--------------------------------------| 
B|-----------------12----12----------(12)----12-15p12----12-----------------------| 
G|--------------------14----14b16----(16)----12-------14----12h14p12----14----12--| 
D|-------------------------------------------------------------------14----14-----| 
A|--------------------------------------------------------------------------------| 
E|--------------------------------------------------------------------------------| 



     A                                               E 
e|-------17b19--(19)-15-17-17b19-15-17-15b16--15b16--|--12-----15b16--15b16-12-----15b16-15b16--| 
B|----(14)-------------------------------------------|------14------------------14--------------| 
G|---(14)--------------------------------------------|------------------------------------------| 
D|---------------------------------------------------|------------------------------------------| 
A|---------------------------------------------------|------------------------------------------| 
E|---------------------------------------------------|------------------------------------------| 



     B                                           E 
e|----15b16-12----15b16-12----13-15----13-15-17--|--17b18-17b19----r17-15-----------15----------| 
B|-------------14----------14-------14-----------|------------------------17--(17)-----17\5-----| 
G|-----------------------------------------------|-------------------------------------------0--| 
D|-----------------------------------------------|-------------------------------------------0--| 
A|-----------------------------------------------|-------------------------------------------0--| 
E|-----------------------------------------------|--------------------------------------------=-| 




e|-----------------------------------------------------| 
B|----------20b24--r20-17-20b21-20b21-17--17-20-20b21--| 
G|---(0)----20b23--r20---------------------------------| 
D|---(0)-(18)------------------------------------------| 
A|---(0)-(17)------------------------------------------| 
E|-----------------------------------------------------| 




e|------------------------------------------------------| 
B|-------20b22--(22)b24-----20b24-17--20b21-17-(17)-----| 
G|---------------------------------------------------0--| 
D|----(17)---------------(17)------------------------0--| 
A|---(17)---------------(17)-------------------------0--| 
E|------------------------------------------------------| 




e|----------------------------------------------------| 
B|--------20b24--20p17----17-19----20b23--20-20p17----| 
G|---(0)---------------18--------------------------0--| 
D|---(0)----------------------------------------------| 
A|---(0)----------------------------------------------| 
E|----------------------------------------------------| 



     A 
e|----19b22--r19--17-19-17h19p17----17-15h17p15----15-12h15p12---------------12-15p12h14p12-----| 
B|-------------------------------20-------------17------------15p12----12h15----------------15--| 
G|------------------------------------------------------------------15--------------------------| 
D|----------------------------------------------------------------------------------------------| 
A|----------------------------------------------------------------------------------------------| 
E|----------------------------------------------------------------------------------------------| 




e|----12-------------12-------------------------------------------12--------12\3------| 
B|-------15p12----------15p12-------14----14p12-------------12h15----15b16------------| 
G|-------------15h16----------14p12-14----14p12----12h14b16---------------------------| 
D|-------------------------------------14-------14------------------------------------| 
A|------------------------------------------------------------------------------------| 
E|------------------------------------------------------------------------------------| 



     E 
e|----14b15-14b15--14b15-12-----------------------------------------------| 
B|----14b15-14b15--14b15----12-------12----------------------12-----------| 
G|-----------------------------14b15----12b13----14----12h14----14p12-----| 
D|--------------------------------------------14----14----------------14--| 
A|------------------------------------------------------------------------| 
E|------------------------------------------------------------------------| 




e|-----------------------------------------------------------| 
B|-------------------------------------------12-14b15-12-14--| 
G|----14----12--------------------------5/13-----------------| 
D|-------14----14-14-14-(14)---(14)\7-8----------------------| 
A|-----------------------------------------------------------| 
E|-----------------------------------------------------------| 



     B 
e|----------------------------------------------------------------------------| 
B|----15p14p12----15p14p12----15p14p12----15p14p12----15p14p12----15p14p12----| 
G|-------------12----------12----------12----------12----------12----------12-| 
D|----------------------------------------------------------------------------| 
A|----------------------------------------------------------------------------| 
E|----------------------------------------------------------------------------| 

  --------------------------------------| 
  -15p14p12----15p14p12----15p14p12-----| 
  ----------12----------12----------12--| 
  --------------------------------------| 
  --------------------------------------| 
  --------------------------------------| 


     A 
e|----------------------------------------------------------------------------| 
B|----15p14p12----15p14p12----15p14p12----15p14p12----15p14p12----15p14p12----| 
G|-------------12----------12----------12----------12----------12----------12-| 
D|----------------------------------------------------------------------------| 
A|----------------------------------------------------------------------------| 
E|----------------------------------------------------------------------------| 

  ----------15b17--15b16--| 
  -15p14p12---------------| 
  ------------------------| 
  ------------------------| 
  ------------------------| 
  ------------------------| 


     E                                      B 
e|----12--12-15p12--12-15p12--12-15p12--12--|------16b17--15b17--15b17--15b17--15b17--15-17--| 
B|------------------------------------------|-------------15b17--15b17--15b17--15b17---------| 
G|------------------------------------------|------------------------------------------------| 
D|------------------------------------------|------------------------------------------------| 
A|------------------------------------------|------------------------------------------------| 
E|------------------------------------------|------------------------------------------------| 


 
		  

Full key step upFull key step up
Half key step upHalf key step up
Half key step downHalf key step down
Full key step downFull key step down
hide glossary

See also:

tabs Yes - Roundabout tabs Queen - we will rock you (solo) tabs Status Quo - Whatever you want tabs Eric Clapton - Tears In Heaven (ver. 3) tabs The Beatles - Blackbird tabs Billy Idol - White Wedding
e-chords

Other versions:

tabs Gary Moore - Can't Fool The Blues
auto scroll beats size up size down change color hide chords drawings
tab show chords e-chords YouTube Clip e-chords hide all tabs e-chords go to top tab

share