Gary Clark Jr.

Things Are Changin Tab

Gary Clark Jr.

Difficulty: BeginnerBeginner

by ang%2Dletra

tuner correct add songbook print version text version save to e-mail
chordsukulelecavacokeyboardtabbassdrumsharmonicsflute Guitar Pro
close

there isn't a video lesson for this song

request
chords

Things Are Changin

  		

intro (x2) 
(0:00-0:23) 
e|-------0------------0------------4-----4-----4-----| 
B|-----7-----0-----7--------0------------------------| 
G|---------6-------------6-----6-----6-----6-----6---| 
D|---7-----------7-----------7---7-----7-----7-----7-| 
A|-5---5-5-5---5---5-5---5---0-----0-----0-----0-----| 
E|---------------------------------------------------| 
                               | first time              | end on | 
e|-------0-----------0------|-------4-----5-----7-----|---4--4-| 
B|-----7-----0-----7------0-|-------------------------|---0--0-| 
G|---------6-----------6----|---6-----6-----6-----6---|---6----| 
D|---7-----------7----------|-7---7-----7-----7-----7-|---7----| 
A|-5---5-5-5---5---5-5-5----|-0-----0-----0-----0-----|---0----| 
E|--------------------------|-------------------------|--------| 

verse 
(0:23-0:34) 
e|-----------------7-------------------------------7---------------| 
B|---7-x---7-7-x---5---5h7p5-----5---7-x---5---x---5-x---5h7---5---| 
G|---6-x---6-x-x---4---------4---4---6-x-----6-x-----x---4-----4-4-| 
D|-7-7-x-7-7-7-x-6---6---------6---7---x-7-----x-6---x-6-----6---6-| 
A|-5-----5-------4---4---------4---5-----5-------4-----4-----4-----| 
E|-----------------------------------------------------------------| 

(0:34-0:39) 
e|-------------------4h7p4---------------| 
B|---7-x---5-----5---5------5h7p5------5-| 
G|---6-x-----6---6----------4----------4-| 
D|-7---x-7-----x---6------6-------6-x--6-| 
A|-5-----5-----x---4------4---------x----| 
E|---------------------------------------| 

(0:39-0:50) 
e|-------------------7---4------------------------4h7p4-----------------| 
B|---7-x---5-----5---5-x-5-x-7---5---7-x-7-7-5----------x---5h7p5-----5-| 
G|---6-x-----6---6-----x---x-4-x-4---6-x-6-6-6----------x---------4---4-| 
D|-7---x-7-----7---6---x---x---x---7---x-------6--------x-6-------------| 
A|-5-----5-----5---4---------------5-----------4----------4---------4---| 
E|----------------------------------------------------------------------| 


(0:51-1:00) 
e|---------------4h7p4-----------------------------4h7p4--------------| 
B|---7-x-----7---5-------7---5-----7-x-----7-x-----5-----x--5h7p5---5-| 
G|---6-x-----6-----------4---4-----6-x-----6-x-----------x--4-------4-| 
D|-7-7-x-----7-6-------------------7-x-----7-x---6------------------6-| 
A|-5-----0-5---4-------4---4---5-5-----0-5-----4-4---------4------4---| 
E|--------------------------------------------------------------------| 

(1:00-1:12) 
e|-------------------7---4---------------------4h7p4---------------| 
B|---7-x-----7-x-----5---5-x-7-x-5---7-----7---5-----x---5h7p5---5-| 
G|---6-x-----6-x-------x---x-4-x-4---6-----6---------x---4-------4-| 
D|---7-x-----7-x-------x---x---x---7-----7---6-------------------6-| 
A|-5-----0-5-----4-4---x---x---x---5---0-5---4---------4-------4---| 
E|-----------------------------------------------------------------| 

(1:12-!:25) 
e|-----------------7---4-----------------------------7---------------| 
B|---7---7---7-----5-x-5---7-x---5---7-x-----7-x-----5---5h7p5---5---| 
G|---6-x-6---6-------x-----4-x---4---6-x-----6-x---------4-------4---| 
D|-----x---------6---x----6--x-6-----7-x-----7-x-------------------6-| 
A|-5-------5---4-4-------4---------5-----0-5-----4-4---4-------4---4-| 
E|-------------------------------------------------------------------| 

(1:25-1:36) 
e|-------------------7---4--------------------------7---------------| 
B|---7-x-----7-x-----5---5-x-7-x---5---7-x-----7----5---5h7p5---x-5-| 
G|---6-x-----6-x-------x---x-4-x---4---6-x-----6--------4-----4-x-4-| 
D|---7-x-----7-x-------x---x---x-6---7---x-----7----------------x-6-| 
A|-5-----0-5-----4-4---x---x---x-----5-----0-5---4----4-------------| 
E|------------------------------------------------------------------| 


(1:36-1:47) 
e|-------------------7----------------------------------4h7p4---------------| 
B|---7-x-----7-x-----5-x---5h7p5---x-5---7-x-----7-x-5--5-----x--5h7p5-x---5| 
G|---6-x-----6-x-------x---4-----4-x-4---6-x-----6-x-4--------x--4-----x---4| 
D|---7-x-----7-x-------x-----------x-6---7-x-----7-x-6--------x--------x---6| 
A|-5-----0-5-----4-4-----4-------------5-----0-5-------4--------4--------4--| 
E|--------------------------------------------------------------------------| 

(1:47-1:59) 
e|-----------------7-------------------------------5h7p5-----------------| 
B|---7---7---7-----5-x--7p5---5-5---7-x-7---7-x-5--------x--5h7p5-5---5--| 
G|---6-x-6---6-------x------6---4---6-x-6---6-x-4--------x--4-----4---4--| 
D|-----x-------------x----------6---7-x-----7-x----------x--------6---6--| 
A|-5-------5---4-------4----------5-------5-------4--------4--------4----| 
E|-----------------------------------------------------------------------| 

(2:00-1:10) 
e|-------------------7-----------------------------7---------------| 
B|---7-x-----7-x-7---5---7---5-----7-x-----7-x-----5---5h7p5-------| 
G|---6-x-----6-x-6-------4---4-----6-x-----6-x-----------------x---| 
D|---7-x-----7-x---6---------------7-x-----7-x-----------------x---| 
A|-5-----0-5-------4---4---4---5-5-----0-5-----4-4---4-------4---4-| 
E|-----------------------------------------------------------------| 

(2:10-1:15) 
e|-------------------7---------| 
B|---7-x-----7-x-7---5---7---5-| 
G|---6-x-----6-x-6-------4---4-| 
D|---7-x-----7-x---6-----------| 
A|-5-----0-5-------4---4---4---| 
E|-----------------------------| 

(2:15-2:21) 
e|-------0------------0------------4-----4-----4-----| 
B|-----7-----0-----7--------0------------------------| 
G|---------6-------------6-----6-----6-----6-----6---| 
D|---7-----------7-----------7---7-----7-----7-----7-| 
A|-5---5-5-5---5---5-5---5---0-----0-----0-----0-----| 
E|---------------------------------------------------| 

(2:21-2:26)                          
e|-------0------------0------------4-----5-----7-----| 
B|-----7-----0-----7--------0------------------------| 
G|---------6-------------6-----6-----6-----6-----6---| 
D|---7-----------7-----------7---7-----7-----7-----7-| 
A|-5---5-5-5---5---5-5---5---0-----0-----0-----0-----| 
E|---------------------------------------------------| 
(2:27-2:32) 
e|-------0------------0------------4-----4-----4-----| 
B|-----7-----0-----7--------0------------------------| 
G|---------6-------------6-----6-----6-----6-----6---| 
D|---7-----------7-----------7---7-----7-----7-----7-| 
A|-5---5-5-5---5---5-5---5---0-----0-----0-----0-----| 
E|---------------------------------------------------| 

(2:32-2:38) 
e|-------0-----------0-------4--7-4-| 
B|-----7-----0-----7-----0---0--0-0-| 
G|---------6-----------6-----6--6-6-| 
D|---7-----------7-----------7------| 
A|-5---5-5-5---5---5-5-5-----0------| 
E|----------------------------------| 

(2:38-2:49) 
e|---------5-------4h7p4-----------------------------------7---4------------| 
B|---7-7---7-x-----5-----x---5h7p5-5---5---7-x-----7-x-----5---5-x---7-x--5-| 
G|---6-6-----x-----------x---4-----4---4---6-x-----6-x-------x---x---4-x--4-| 
D|---7-7-----x-----------x-----------6-6---7-x-----7-x-------x---x-6---x-6--| 
A|-5-----5-----4-4---------4-------------5-----0-5-----4-4---x---x-----x----| 
E|--------------------------------------------------------------------------| 

(2:49-3:00) 
e|------------------4h7p4-------------------------------------7---------| 
B|---7-x-----7-x----5-----x---5h7p5---5------7-x-----7-x------5---------| 
G|---6-x-----6-x----------x---4-------4------6-x-----6-x--------7\6p4/6-| 
D|---7-x-----7-x----------x---------6-6------7-x-----7-x--------6-------| 
A|-5-----0-5-----4-4--------4-----------4--5-----0-5-----4-4------------| 
E|----------------------------------------------------------------------| 

(3:00-3:12) 
e|--------------4h7p4-------------------------------4h7p4----------------| 
B|--------7-x---5-----x---5h7p5--5---7-x-7---7-x-7--5-----x---5h7p5--x-5-| 
G|---6----6-x---------x---4------4---6-x-6---6-x-6--------x---4------x-4-| 
D|---7----7-x-6-------x--------6-----7-x-7---7-x---6------x--------6-x---| 
A|-5--0-5-----4---------4----------5-------5-------4---------4-----------| 
E|-----------------------------------------------------------------------| 

(3:12-3:24) 
e|-------------------7------------------------------4h7p4----------| 
B|---7-x-----7-x-7---5---7---5-----7-x-----5-x-7----5------7p5---5-| 
G|---6-x-----6-x-6-------4---4-----6-x-----6-x-6-----------4-----4-| 
D|---7-x-----7-x---6---------------7-x-----7-x---------------------| 
A|-5-----0-5-------4---4---4---5-5-----0-5-------4-4-----4-----4---| 
E|-----------------------------------------------------------------| 

(3:24-3:35) 
e|-------------------4h7p4--------------------------------4h7p4-------------| 
B|---7-x-----7-x-5---5------5h7p5---x-5---7-x-----7-x-----5-------7p5---5---| 
G|---6-x-----6-x-4----------4-------x-4---6-x-----6-x-------------4-----4---| 
D|---7-x-----7-x-6--------6-------6-x-----7-x-----7-x-----------------------| 
A|-5-----0-5-------4--------------------5-----0-5-----0-4-------4-----4---4-| 
E|--------------------------------------------------------------------------| 

(3:35-3:46) 
e|-------------------4h7p4----------------------------------7------------| 
B|---7-x-7---7-x-5---5-------5h7p5--x-5-----7-x-----7-x-----5--7p5---5---| 
G|---6-x-6---6-x-4-----------4------x-4-----6-x-----6-x--------4-----4---| 
D|---7-x-7---7-x-6---------6------6-x-------7-x-----7-x------------------| 
A|-5-------5-------4--------------------4-5-----0-5-----4-4---4----4---4-| 
E|-----------------------------------------------------------------------| 

(3:46-3:57) 
e|-------------------4h7p4-------------------------------7---4-----------| 
B|---7-x-----7-x-5---5------5h7p5---x-5---7-x---7---x-7--5-x-5-x-7-x---5-| 
G|---6-x-----6-x-4----------4-------x-4---6-x---6---x-6----x---x-4-x---4-| 
D|---7-x-----7-x-6--------6---------x-----7-x---7---x-7----x---x---x-----| 
A|-5-----0-5-------4--------------4-----5-----0-5-5-----4------------4---| 
E|-----------------------------------------------------------------------| 


(3:57-4:09) 
e|-------------------7---------------------------------7---4-------------| 
B|---7-x-----7-x-5---5-x---5h7p5---5---7-x---7---x-5---5-x-5-----7-----5-| 
G|---6-x-----6-x-4-----x-----------4---6-x---6---x-4-----x-------4-x---4-| 
D|---7-x-----7-x-6-----x---------6-----7-x-----7-x-6-----x-----6---x---6-| 
A|-5-----5-5-------4-----4-----------5-----5---------4-------4-----x-4---| 
E|-----------------------------------------------------------------------| 


(3:57-4:09) 
e|-------------------7---------------------------------7---4-------------| 
B|---7-x-----7-x-5---5-x---5h7p5---5---7-x---7---x-5---5-x-5-----7-----5-| 
G|---6-x-----6-x-4-----x-----------4---6-x---6---x-4-----x-------4-x---4-| 
D|---7-x-----7-x-6-----x---------6-----7-x-----7-x-6-----x-----6---x---6-| 
A|-5-----5-5-------4-----4-----------5-----5---------4-------4-----x-4---| 
E|-----------------------------------------------------------------------| 


(4:09-4:20) 
e|-----0-0-0-0-0-0-0-0-0-0-0-0-0-0-0-0-------0---5-5-5-5-----0---0---0---| 
B|-----7-7-7-7-7-7-7-7-7-7-7-7-7-7-7-7-------3---3-3-3-3-----1---1---1---| 
G|-----6-6-6-6-6-6-6-6-6-6-6-6-6-6-6-6-------0---0-0-0-0---2-2-2-2-2-2-2-| 
D|---7-7-7-7-7-7-7-7-7-7-7-7-7-7-7-7-7/5-5-5-5-5-5-5-5-5-3-3-3-3-3-3-3-3-| 
A|-5---------------------------------------------------------------------| 
E|-----------------------------------------------------------------------| 

(4:20-4:31) 
e|-0---0---0---0---0---0---0---0----7-| 
B|-5---5---5---5---5---5---5---5----5-| 
G|-6-6-6-6-6-6-6-6-6-6-6-6-6-6-6-6--6-| 
D|-7-7-7-7-7-7-7-7-7-7-7-7-7-7-7-7--7-| 
A|------------------------------------| 
E|------------------------------------| 
 
	  

Search Paypal
auto scroll beats size up size down change color hide chords drawings
tab show chords e-chords YouTube Clip e-chords hide all tabs e-chords go to top tab

share with facebook