Garth Brooks

The Dance

Garth Brooks

tabs Expert expert

save to print version add songbook text version e-mail correct tuner
chordsukulelecavacokeyboardtabbassdrumsharmonicaflute Guitar Pro
close

there isn't a video lesson for this song

chords

The Dance

	  		Piano 
Intro: 
|----------------------3-5-7-3------------------------------ 
|---------8------------------------------3------------------ 
|----9-10---10-9-----0---------------0-2---2-0-2-0---------- 
|---9-------------------------------0----------------------- 
|--7---------------3---------------------------------------- 
|-7--------------------------------------------------------- 
 
 
 
Guitar 
Intro: 
E|-------------3------------------------3------------------- 
B|---------0-----1------------------0-----1----------------- 
G|-------0-------0----------------0-------0----------------- 
D|-----0---------2--------------0---------2----------------- 
A|---------------------------------------------------------- 
E|---3-------3----------------3-------3--------------------- 
 
 
E|----------------------------------------------------------- 
B|---------0-----3---1-----0--------------------------------- 
G|-------0---------0-0-----0--------------------------------- 
D|-----0---------4---2-----0--------------------------------- 
A|----------------------------------------------------------- 
E|---3---------------------3--------------------------------- 
 
 
Looking back 
E|-------------3--------------------------3------------------ 
B|---------0-----1-------------------0------1---------------- 
G|-------0-------0-----------------0--------0---------------- 
D|-----0---------2---------------0----------2---------------- 
A|----------------------------------------------------------- 
E|---3-------3-----------------3--------3-------------------- 
 
on the memory of 
E|-------------3---------------------------3----------------- 
B|---------3---------------------------3--------------------- 
G|-------0---------0-----------------0---------0------------- 
D|-----2---------2-----------------2---------2--------------- 
A|---3---------------------------3--------------------------- 
E|----------------------------------------------------------- 
 
 
the dance we shared 
E|---------2-----0-----------------------------2-----0------- 
B|-------3-----3---3-------------------------3-----3---3----- 
G|-----2-----------------------------------2----------------- 
D|---0-----------------------------------0------------------- 
A|----------------------------------------------------------- 
E|----------------------------------------------------------- 
 
 
 
 
beneath the stars above 
E|-------------3-----------0h2---0--------------------------- 
B|---------0-------------3-----3---3------------------------- 
G|-------0---------0---2------------------------------------- 
D|-----0---------0---0--------------------------------------- 
A|----------------------------------------------------------- 
E|---3-------3----------------------------------------------- 
 
F				or a moment all the world was right 
E|-------------3----------------------3---------------------- 
B|---------0-----1-----------------0----1-------------------- 
G|-------0-------0---------------0------0-------------------- 
D|-----0---------2-------------0--------2-------------------- 
A|----------------------------------------------------------- 
E|---3-------3---------------3-------3----------------------- 
 
How could I  
E|-------------3------------------------------------3-------- 
B|---------3-------------------------------------3----------- 
G|-------0---------0---------------------------0---------0--- 
D|-----2---------2---------------------------2---------2----- 
A|---3-------------------------------------3----------------- 
E|----------------------------------------------------------- 
 
 
have known 
E|---------2-----0------------------------------2-----0------- 
B|-------3-----3---3--------------------------3-----3---3----- 
G|-----2------------------------------------2----------------- 
D|---0------------------------------------0------------------- 
A|------------------------------------------------------------ 
E|------------------------------------------------------------| 
 
that you'd ever say goodbye 
E|---------0---------------2---------------------------------- 
B|-------1-----1---------3-----3------------------------------ 
G|-----0---------0-----2---------2---------------------------- 
D|------------------------------------------------------------ 
A|------------------------------------------------------------ 
E|---0---------------2---------------------------------------- 
 
 
And now I'm glad I didn't know the way it all would 
E|---------0---------------0---------------------2----------------2-------| 
B|-------1-----1---------1-----1---------------3---3------------3---3-----| 
G|-----0---------0-----0---------0-----------2-------2--------2-------2---| 
D|-----------------------------------------0----------------0-------------| 
A|---3--------------3-----------------------------------------------------| 
E|------------------------------------------------------------------------| 
 
 
 
 
 
 
 
 
 
end the way it all would go.................. 
E|---------2---------------3---------------5------------------ 
B|-------3-----3---------5-----5---------7-----7-------------- 
G|-----4---------4-----5---------5-----7---------7------------ 
D|------------------------------------------------------------ 
A|---2---------------3---------------5------------------------ 
E|------------------------------------------------------------ 
 
 
our lives are better left to chance 
E|---------2---------------3---------------5------------------ 
B|-------3-----3---------5-----5---------7-----7-------------- 
G|-----4---------4-----5---------5-----7---------7------------ 
D|------------------------------------------------------------ 
A|---2---------------3---------------5------------------------ 
E|------------------------------------------------------------ 
 
 
I could have missed 
E|---------0---------------0-------------------2---------------2----------| 
B|-------1-----1---------1-----1-------------3----3----------3----3-------| 
G|-----0---------0-----0--------0----------2--------2------2--------2-----| 
D|---------------------------------------0---------------0----------------| 
A|---3---------------3----------------------------------------------------| 
E|------------------------------------------------------------------------| 
 
 
 
the pain but I'd have to miss 
E|---------2---------------3---------------5------------------ 
B|-------3-----3---------5-----5---------7-----7-------------- 
G|-----4---------4-----5---------5-----7---------7------------ 
D|------------------------------------------------------------ 
A|---2---------------3---------------5------------------------ 
E|------------------------------------------------------------ 
 
the dance........ 
E|---------2---------------3---------------5------------------ 
B|-------3-----3---------5-----5---------7-----7-------------- 
G|-----4---------4-----5---------5-----7---------7------------ 
D|------------------------------------------------------------ 
A|---2---------------3---------------5------------------------ 
E|------------------------------------------------------------ 
 
 
E|-------------3------------------------3--------------------- 
B|---------0-----1p-----------------0-----1p------------------ 
G|-------0-------0p---------------0-------0p------------------ 
D|-----0---------2p-------------0---------2p------------------ 
A|------------------------------------------------------------ 
E|---3-------3----------------3-------3----------------------- 
 
 
 
 
 
 
E|------------------------------------------------------------ 
B|---------0-----3---1-0-------------------------------------- 
G|-------0---------0-0-0-------------------------------------- 
D|-----0---------4---2-0-------------------------------------- 
A|------------------------------------------------------------ 
E|---3-----------------3-------------------------------------- 
 
 
I don't have the anymore song so I can't line the words up right but this should get you started. 
 
 
 

		  

See also:

tabs Simpsons - Theme tabs Hayseed Dixie - Walk This Way tabs Theme Songs - Mario Bros. tabs Big & Rich - Save A Horse Ride A Cowboy-correct tabs Jerry Reed - Eastbound And Down tabs Hank Williams Jr - Family Tradition
e-chords

Other versions:

tabs Garth Brooks - The Dance tabs Within Temptation - The Dance tabs Garth Brooks - The Dance - Fingerstyle tabs Dream Theater - The Dance Of Eternity
auto scroll beats size up size down change color hide chords drawings
tab show chords e-chords YouTube Clip e-chords hide all tabs e-chords go to top tab

share