Gareth Pearson

Chinese Whispers

Gareth Pearson

tabs Expert expert

by  EDUCASTILHO

save to print version add songbook text version e-mail correct tuner
chordsukulelecavacokeyboardtabbassdrumsharmonicaflute Guitar Pro
close

there isn't a video lesson for this song

chords

Chinese Whispers

	  		
Intro: 

e|----------------0----------------|---------------0--------------|    
B|----0-----0--------0-----0-------|---0-----0-------0-----0------|      
G|------2-----2--------2-----2---2-|-----2-----2-------2-----2----|         
D|--------4-----4--------4-----4---|-------4-----4-------4-----4--|        
A|---------------------------------|------------------------------|      
E|-2-------------------------------|-2----------------------------|      


e|----------------0----------------|-------------0----------|    
B|----0-----0-------0------0-------|-0-----0-----------0----|      
G|------6-----6-------6------6-----|---6-----6-------6------|         
D|--------4-----4-------4------4---|-----4-----4------------|        
A|-/5-----------------------------5|---------------0--------|      
E|---------------------------------|---------------------0--| 
      

e|----------------0----------------|---------------0--------------|    
B|----0-----0--------0-----0-------|---0-----0-------0-----0------|      
G|------2-----2--------2-----2---2-|-----2-----2-------2-----2----|         
D|--------4-----4--------4-----4---|-------4-----4-------4-----4--|        
A|---------------------------------|------------------------------|      
E|-2-------------------------------|-2----------------------------|      


e|----------------0----------------|-------------0----------|    
B|----0-----0-------0------0-------|-0-----0-----------0----|      
G|------6-----6-------6------6-----|---6-----6-------6------|         
D|--------4-----4-------4------4---|-----4-----4------------|        
A|-/5-----------------------------5|---------------0--------|      
E|---------------------------------|---------------------0--| 

Part one: 
(played two times) 

e|-12-12--9----------9-|-12--12--9---------9-|-12-12--9-----------9--|    
B|-------------12------|-------------12------|-------------12--------|      
G|-----------9---------|-----------9---------|-----------9-----------|         
D|----------------11---|-----------------11--|-----------------11----|        
A|-9-------------------|-9-------------------|-9--9------------------|      
E|---------------------|---------------------|-----------------------|      


e|-12-12-9-------|--0----0---x-------9----9----------------|    
B|-----------12--|--7p5--7p5-x---------12---12-------------|    
G|---------9-----|--7----7---x-(7)/11----------11--9h11----|         
D|---------------|--0--------x-----------------------------|       
A|-9-------------|-----------x-----------------------------|     
E|---------------|-----------x-----------------------------|      


e|---0----0---x-------9----9----------------|    
B|---7p5--7p5-x---------12---12-------------|    
G|---7----7---x-(7)/11----------11--9-------|         
D|---0--------x-----------------------------|       
A|------------x-----------------------------|     
E|------------x-----------------------------|      

Part 2: 

e|-4--5---x---7---9---x---12---14---x---16---16/---x----|    
B|--------x-----------x-------------x--------------x----|      
G|--------x-----------x-------------x--------------x----|         
D|-2--4---x---6---7---x---9----12---x---14---14/---x----|        
A|--------x-----------x-------------x--------------x----|      
E|-0--0---x---0---0---x---0----0----x---0----0-----x----|      


e|----------x----------0------------------0--x--------------0-x--0-x--|    
B|--------0-x----0h2h4---0---------7~-----0--x--------------0-x--0-x--|      
G|----1h2---x--------------2-----------------x-------6p4----4-x--4-x--|         
D|----------x-------------------x-------0----x---4h7-----7----x----x--|        
A|----------x------------------/9------------x--5---------------------|      
E|-0-2------x--4----------------x------------x------------------------|      


e|----------x---------------0--|  
B|-------2--x---------------0--|     
G|-------2--x--------6p4----4--|         
D|----------x----4h7-----7-----|        
A|-2h4h5----x--5---------------|      
E|----------x------------------|     


Part 3: 

e|-12-12-9---------9-|-12-12-9---------|-12-12-9------------12h14-------|    
B|-----------12------|-----------12--x-|-----------12--12/14------12h14-|      
G|---------9---------|---------9-----x-|---------9----------------------|         
D|--------------11---|---------------x-|--------------------------------|        
A|-9-----------------|-11------------x-|-0--0---------------------------|      
E|-------------------|-----------------|--------------------------------|      

e|-------------|--0----0--x--------9----9------------|--0----0--x---------|    
B|-------------|--7p5-7p5-x----------12---12---------|--7p5--7p5x---------|      
G|-13/11-------|--7----7--x-(7)/11-----------11-9h11-|--7----7--x-(7)/11--|         
D|---------14~-|--0-------x--------------------------|--0-------x---------|        
A|-------------|----------x--------------------------|----------x---------|      
E|-------------|----------x--------------------------|----------x---------|      


e|-9----9----------|-12-12-9-----|-12-12-9--------9--x|-12-12-9------------|    
B|---12---12-------|----------12-|-----------12------x|-----------12--12/14|      
G|------------11-9~|-------------|----------9--------x|----------9---------|         
D|-----------------|-------------|--------------9----x|--------------------|        
A|-----------------|-9-----------|-11----------------x|-0------------------|      
E|-----------------|-------------|-------------------x|--------------------|      

e|-12h14----------------|-0----0--x--------9----9--------------|    
B|-------12h14----------|-7p5-7p5-x----------12---12-----------|      
G|-------------13/11----|-7----7--x-(7)/11-----------11-9h11---|         
D|-------------------14~|-0-------x----------------------------|        
A|----------------------|---------x----------------------------|      
E|----------------------|---------x----------------------------|      

e|-0----0----x--------9----9------------|  
B|-7p5--7p5--x----------12---12---------|   
G|-7----7----x-(7)/11-----------11--9~--|        
D|-0---------x--------------------------|       
A|-----------x--------------------------|    
E|-----------x--------------------------|     

Part 2 again: 

e|-4--5---x---7---9---x---12---14---x---16---16/---x----|    
B|--------x-----------x-------------x--------------x----|      
G|--------x-----------x-------------x--------------x----|         
D|-2--4---x---6---7---x---9----12---x---14---14/---x----|        
A|--------x-----------x-------------x--------------x----|      
E|-0--0---x---0---0---x---0----0----x---0----0-----x----|      



e|----------x----------0------------------0--x--------------0-x--0-x--|    
B|--------0-x----0h2h4---0---------7~-----0--x--------------0-x--0-x--|      
G|----1h2---x--------------2-----------------x-------6p4----4-x--4-x--|         
D|----------x-------------------x-------0----x---4h7-----7----x----x--|        
A|----------x------------------/9------------x--5---------------------|      
E|-0-2------x--4----------------x------------x------------------------|      


e|----------x---------------0--|  
B|-------2--x---------------0--|     
G|-------2--x--------6p4----4--|         
D|----------x----4h7-----7-----|        
A|-2h4h5----x--5---------------|      
E|----------x------------------|   


Part 4: 

e|-4--6--x--7---9---12-x--14---16--x----12*---7*---x-------2-----------|  
B|-------x-------------x-----------x--12*----7*----x-------2--/7p5-----|     
G|-------x-------------x-----------x---------------x-------2--------6--|       
D|-2--5--x--6---7---9--x--12---14--x---------------x-------4-----------|       
A|-------x-------------x-----------x---------------x-------4-----------|      
E|-0--0--x--0---0---0--x--0----0---x---------------x--0----2-----------|     

e|----2h4p2p0---------0-------12-------12/--------2--x------14-------14/-|    
B|------------2-------0----------10---------------5--x---------12--------|      
G|--------------2-----2--/-11-------11-------2----2--x-/-13-------13-----|         
D|-----------------0----------------------------0------------------------|        
A|---------------------------------------------------x-------------------|      
E|-0-------------------------------------------------x-------------------|      

e|------2--x------12------12/-----2--x---14------14/---|    
B|------5--x---------10-----------5--x------12---------|      
G|-2----2--x-/-11-------11----2---2--x-13------13------|         
D|----0-------------------------0----------------------|        
A|---------x-------------------------x-----------------|      
E|---------x-------------------------x-----------------|      

Part 5: 

e|--------------x----7-5p4h5---0~-|-----------x------------2-2--x--2--|    
B|----5------5--x--------------0~-|-9h10----9-x----10\-----5-2--x--5--|      
G|-0--4--0---4--x------------7----|---------9-x------------4-2--x--2--|         
D|--------5-----x-5--0------------|-9h11------x--9/11\---2------x-----|        
A|----4------4--x-----------------|-9---------x-----------------x-----|      
E|--------------x-----------------|-------10--x--7/9\-----------x-----|      


e|--------------x----7-5p4h5-------0-|------------------------0--0----|    
B|----5------5--x--------------5/7---|-----------x------------0--0----|      
G|-0--4--0---4--x------------7-------|-----------x---------------4----|         
D|--------5-----x-5--0---------------|-----------x---------------2----|        
A|----4------4--x--------------------|------0h2--x-2/4--2-0---4-----0-|      
E|--------------x--------------------|--0h2------x--------------------|      



e|--------------x----7-5p4/5---------|-----------x------------2-2--x--2--|    
B|----5------5--x-----------5---9/12-|-9h10----9-x----10\-----5-2--x--5--|      
G|-0--4--0---4--x------------6-------|---------9-x------------4-2--x--2--|         
D|--------5-----x-5--0---------------|-9h11------x--9/11\---2------x-----|        
A|----4------4--x--------------------|-9---------x-----------------x-----|      
E|--------------x--------------------|-------10--x--7/9\-----------x-----|      


e|--------------x----7-5p4h5--------|    
B|----5------5--x-------------------|      
G|-0--4--0---4--x------------7-6/4--|         
D|--------5-----x-5--0--------------|        
A|----4------4--x-------------------|      
E|--------------x-------------------|      


Part 6: 


e|--------0--x--------------x---|-------9--x-9/12-10p9--------x-----|    
B|-0h2-------x----3-2p0---0-x---|----7-----x-----------10/12--x(12)-|      
G|-2---------x--2-------2---x-2-|--9---9---x------------------x-9\--|         
D|-2---------x--------------x---|----------x------------------x-----|        
A|-0----0----x--------------x---|----------x------------------x-----|      
E|-----------x--2-----------x---|--9-------x------------------x-----|      

e|--------0--x--------------x---|--------------x--------------------------|    
B|-0h2-------x----3-2p0---0-x---|-----5------5-x--------------------------|      
G|-2---------x--2-------2---x-2-|--0--4--0---4-x-----------------x--------|         
D|-2---------x--------------x---|----------5---x------2----------x--------|        
A|-0----0----x--------------x---|-----4------4-x--------0---2/4--2p0------|      
E|-----------x--2-----------x---|--------------x--0h2-----2------x----2p0-|      


e|--------0--x--------------x---|---5p4------x------------------------|    
B|-0h2-------x----3-2p0---0-x---|--------5h7-x-5----------------------|      
G|-2---------x--2-------2---x-2-|------------x----4h6-6-6-6p4/2-------|         
D|-2---------x--------------x---|--------6---x----0--------------4-2--|        
A|-0----0----x--------------x---|---4---------------------------------|      
E|-----------x--2-----------x---|-------------------------------------|      

Part 2 once again: 

e|-4--5---x---7---9---x---12---14---x---16---16/---x----|    
B|--------x-----------x-------------x--------------x----|      
G|--------x-----------x-------------x--------------x----|         
D|-2--4---x---6---7---x---9----12---x---14---14/---x----|        
A|--------x-----------x-------------x--------------x----|      
E|-0--0---x---0---0---x---0----0----x---0----0-----x----|      


e|----------x----------0------------------0--x--------------0-x--0-x--|    
B|--------0-x----0h2h4---0---------7~-----0--x--------------0-x--0-x--|      
G|----1h2---x--------------2-----------------x-------6p4----4-x--4-x--|         
D|----------x-------------------x-------0----x---4h7-----7----x----x--|        
A|----------x------------------/9------------x--5---------------------|      
E|-0-2------x--4----------------x------------x------------------------|      


e|----------x---------------0--|  
B|-------2--x---------------0--|     
G|-------2--x--------6p4----4--|         
D|----------x----4h7-----7-----|        
A|-2h4h5----x--5---------------|      
E|----------x------------------|     

Part 4 again: 

e|-4--6--x--7---9---12-x--14---16--x----12*---7*---x-------2-----------|  
B|-------x-------------x-----------x--12*----7*----x-------2--/7p5-----|     
G|-------x-------------x-----------x---------------x-------2--------6--|       
D|-2--5--x--6---7---9--x--12---14--x---------------x-------4-----------|       
A|-------x-------------x-----------x---------------x-------4-----------|      
E|-0--0--x--0---0---0--x--0----0---x---------------x--0----2-----------|     

e|----2h4p2p0---------0-------12-------12/--------2--x------14-------14/-|    
B|------------2-------0----------10---------------5--x---------12--------|      
G|--------------2-----2--/-11-------11-------2----2--x-/-13-------13-----|         
D|-----------------0----------------------------0------------------------|        
A|---------------------------------------------------x-------------------|      
E|-0-------------------------------------------------x-------------------|      

e|------2--x------12------12/-----2--x---14------14/-|---------------0--|    
B|------5--x---------10-----------5--x------12-------|---0-----0--------|      
G|-2----2--x-/-11-------11----2---2--x-13------13----|-----2-----2------|         
D|----0-------------------------0--------------------|-------4-----4----|        
A|---------x-------------------------x---------------|------------------|      
E|---------x-------------------------x---------------|-2----------------|      

And Part 3 again on the Outro : 

e|-12-12-9---------9-|-12-12-9---------|-12-12-9------------12h14-------|    
B|-----------12------|-----------12--x-|-----------12--12/14------12h14-|      
G|---------9---------|---------9-----x-|---------9----------------------|         
D|--------------11---|---------------x-|--------------------------------|        
A|-9-----------------|-11------------x-|-0--0---------------------------|      
E|-------------------|-----------------|--------------------------------|      

e|-------------|--0----0--x--------9----9------------|--0----0--x---------|    
B|-------------|--7p5-7p5-x----------12---12---------|--7p5--7p5x---------|      
G|-13/11-------|--7----7--x-(7)/11-----------11-9h11-|--7----7--x-(7)/11--|         
D|---------14~-|--0-------x--------------------------|--0-------x---------|        
A|-------------|----------x--------------------------|----------x---------|      
E|-------------|----------x--------------------------|----------x---------|      


e|-9----9----------|-12-12-9-----|-12-12-9--------9--x|-12-12-9------------|    
B|---12---12-------|----------12-|-----------12------x|-----------12--12/14|      
G|------------11-9~|-------------|----------9--------x|----------9---------|         
D|-----------------|-------------|--------------9----x|--------------------|        
A|-----------------|-9-----------|-11----------------x|-0------------------|      
E|-----------------|-------------|-------------------x|--------------------|      

e|-12h14----------------|-0----0--x--------9----9--------------|    
B|-------12h14----------|-7p5-7p5-x----------12---12-----------|      
G|-------------13/11----|-7----7--x-(7)/11-----------11-9h11---|         
D|-------------------14~|-0-------x----------------------------|        
A|----------------------|---------x----------------------------|      
E|----------------------|---------x----------------------------|      

e|-0----0----x--------9----9------------|-0----0--x-------9----9------------|  
B|-7p5--7p5--x----------12---12---------|-7p5-7p5-x---------12---12---------|   
G|-7----7----x-(7)/11-----------11--9~--|-7----7--x-(7)/11----------11--9h11|        
D|-0---------x--------------------------|-0-------x-------------------------|       
A|-----------x--------------------------|---------x-------------------------|    
E|-----------x--------------------------|---------x-------------------------|     

e|-0----0----x--------9----9-----------------|  
B|-7p5--7p5--x----------12---12--------------|   
G|-7----7----x-(7)/11-----------11--9--------|       
D|-0---------x-------------------------------|      
A|-----------x-------------------------------|  
E|-----------x--------------------------0~---|     
		  

See also:

tabs Guns N' Roses - Welcome to The Jungle tabs Guns N' Roses - Knockin' On Heaven's Door tabs 3 Doors Down - When I'm gone tabs Guns N' Roses - Don't Cry tabs Cheap Trick - The Flame tabs Aerosmith - Dream On
e-chords

Other versions:

tabs Gareth Pearson - Chinese Whispers
auto scroll beats size up size down change color hide chords drawings
tab show chords e-chords YouTube Clip e-chords hide all tabs e-chords go to top tab

share