Games

home > Games

Super Mario Tab

Games

Difficulty: BeginnerBeginner

by Magnous

tuner correct add songbook print version text version save to e-mail
chordsukulelecavacokeyboardtabbassdrumsharmonicsflute Guitar Pro
chords

Super Mario

  		E----------------- 
B-5-5-5---5--8---- 
G-------5-------0- 
D----------------- 
A----------------- 
E----------------- 


E-------------------------5--------------- 
B---------------------6-8---6-8-5--------- 
G--5------------------------------5-7-4--- 
D----5---7--9-8-7--5---------------------- 
A------7---------------------------------- 
E----------------------------------------- 

E----------------------------------888---- 
B-8-7-6---5--------------8-7-6---5-------- 
G-------8-------5---5-7--------8---------- 
D-----------6-7---7----------------------- 
A----------------------------------------- 
E----------------------------------------- 

E----------------------------------------- 
B-8-7-6---5------------------------------- 
G-------8--------5---5-7---8-7-5---------- 
D------------6-7---7---------------------- 
A----------------------------------------- 
E----------------------------------------- 
	  

Search Paypal
auto scroll beats size up size down change color hide chords drawings
tab show chords e-chords YouTube Clip e-chords hide all tabs e-chords go to top tab