Gallant

Miyazaki

Gallant

tabs nolevel nolevel

by  VICTBORGES

save to print version add songbook text version e-mail correct tuner
chordsukulelecavacokeyboardtabbassdrumsharmonicaflute Guitar Pro
close

there isn't a video lesson for this song

chords

Miyazaki

	  		Outro     play along with song to get timing right 

e|--------------------------------|-----------------------------------------------------| 
B|---5/7\5----3-5-7--7---3---5----|---3-5-3---5/7\5----3--5---5--3---2--0---------------| 
G|--------------------------------|-----------------------------------------2--2---2----| 
D|--------------------------------|-----------------------------------------------------| 
A|--------------------------------|-----------------------------------------------------| 
E|--------------------------------|-----------------------------------------------------| 

e|-----------------------------------------------------|--------------------------| 
B|----3-5-7-7--5---5--3--3-5---3-5-7-7--5---5--3--3-0--|-3-5-7-7---10--8---7--5---| 
G|-----------------------------------------------------|--------------------------| 
D|-----------------------------------------------------|--------------------------| 
A|-----------------------------------------------------|--------------------------| 
E|-----------------------------------------------------|--------------------------| 

e|--------------------------|---------------------------------------------------| 
B|---3--5---10--7---5----3--|-3-5-7-7--5---5--3--3-5---3-5-7-7--5---5--3--3-0---| 
G|--------------------------|---------------------------------------------------| 
D|--------------------------|---------------------------------------------------| 
A|--------------------------|---------------------------------------------------| 
E|--------------------------|---------------------------------------------------| 

e|-----------------------------------------------| 
B|---3-5-7-7---10--8---7--5---3--5---10--7---5---| 
G|-----------------------------------------------| 
D|-----------------------------------------------| 
A|-----------------------------------------------| 
E|-----------------------------------------------| 



************************************ 

| /  Slide up 
| \  Slide down 

************************************ 
		  

See also:

tabs Audioslave - Gasoline tabs Red Hot Chili Peppers - Can't Stop tabs Red Hot Chili Peppers - Scar Tissue (ver. 3) tabs Audioslave - Seven Nation Army tabs Boyce Avenue - Titanium tabs Red Hot Chili Peppers - Parallel Universe
e-chords

Other versions:

tabs Gallant - Miyazaki
auto scroll beats size up size down change color hide chords drawings
tab show chords e-chords YouTube Clip e-chords hide all tabs e-chords go to top tab

share with facebook