Fytch

home > Fytch

Burned Tab

Fytch

Difficulty: nolevelnolevel

by LINEKERS

tuner correct add songbook print version text version save to e-mail
chordsukulelecavacokeyboardtabbassdrumsharmonicsflute Guitar Pro
chords

Burned

  		verse 1 

e|-------|---------|-------------|---------------------|-------|---------|---------| 
B|-------|---------|-------------|---------------------|-------|---------|---------| 
G|-------|---------|-------------|---------------------|-------|---------|---------| 
D|-----0-|---3-1-0-|---0---0-----|-----0-1---3-1-1-0-0-|-0-1---|---0-----|-1-0-----| 
A|-1-3---|-1-------|-3---3---3-3-|-3-3-----------------|-----3-|-3---3-3-|-----1-1-| 
E|-------|---------|-------------|---------------------|-------|---------|---------| 

Chorus 

e|---------|---------|-----------|--------------| 
B|---------|-----1---|-----------|----------1---| 
G|---2-3-3-|-3-3---2-|-2-2-3-2-0-|-0-0-2-3----3-| 
D|-0-------|---------|-----------|--------------| 
A|---------|---------|-----------|--------------| 
E|---------|---------|-----------|--------------| 

e|---------|---------|---------|--------------| 
B|---------|-----1---|---------|--------1-----| 
G|---0-2-3-|-3-3---2-|-2-3-2-0-|-0-2-3----3-2-| 
D|-0-------|---------|---------|--------------| 
A|---------|---------|---------|--------------| 
E|---------|---------|---------|--------------| 

Bridge 

e|------------------|-------------------------| 
B|------------------|-------------------------| 
G|------------------|-------------------------| 
D|-0--0-0-3---------|----------------------0-0| 
A|----------1-3-3-3-|-3-3-3-3-3-3-3-1-3--3----| 
E|------------------|-------------------------| 

verse 2 

e|---------|-------|---------|---------| 
B|---------|-------|---------|---------| 
G|---------|-------|---------|---------| 
D|---------|-------|---0-----|---------| 
A|---0-0-1-|-1-3-0-|-0---3---|-3-3-3-0-| 
E|-3-------|-------|-------3-|---------| 

Chorus 

e|---------|---------|-----------|--------------| 
B|---------|-----1---|-----------|----------1---| 
G|---2-3-3-|-3-3---2-|-2-2-3-2-0-|-0-0-2-3----3-| 
D|-0-------|---------|-----------|--------------| 
A|---------|---------|-----------|--------------| 
E|---------|---------|-----------|--------------| 

e|---------|---------|---------|--------------| 
B|---------|-----1---|---------|--------1-----| 
G|---0-2-3-|-3-3---2-|-2-3-2-0-|-0-2-3----3-2-| 
D|-0-------|---------|---------|--------------| 
A|---------|---------|---------|--------------| 
E|---------|---------|---------|--------------| 
	  

Search Paypal
auto scroll beats size up size down change color hide chords drawings
tab show chords e-chords YouTube Clip e-chords hide all tabs e-chords go to top tab